Metallica - Anesthesia Pulling teeth with Wah sound

Metallica - Anesthesia Pulling teeth with Wah sound

Metallica



Title: (ANESTHESIA) Pulling Teeth
Album: 
Artist: Metallica
Author: Cliff Burton - METALLICA

Track 1: Cliff (Distortion Bass)
G|-------------------|--------------|------10---14--------10---14--------10---|-14--------10---14--------10---14--------|
D|-------------------|--------------|-12-------------12-------------12--------|------12-------------12-------------12---|
A|-0------0----0-----|-12-----19----|-----------------------------------------|-----------------------------------------|
E|-------------------|--------------|-----------------------------------------|-----------------------------------------|

G|------9----12--------9----12--------9----|-12--------9----12--------9----12----|------10---14--------10---14--------10---|
D|-10-------------10-------------10--------|------10-------------10--------------|-12-------------12-------------12--------|
A|-----------------------------------------|-------------------------------------|-----------------------------------------|
E|-----------------------------------------|-------------------------------------|-----------------------------------------|

G|-14--------10---14--------10---14----|------12---16--------12---16--------12---|-16--------12---16--------12---16--------|
D|------12-------------12--------------|-14-------------14-------------14--------|------14-------------14-------------14---|
A|-------------------------------------|-----------------------------------------|-----------------------------------------|
E|-------------------------------------|-----------------------------------------|-----------------------------------------|

G|------14---17--------14---17--------17---|------12---16--------12---16--------16---|
D|-15-------------15-------------15--------|-14-------------14-------------14--------|
A|-----------------------------------------|-----------------------------------------|
E|-----------------------------------------|-----------------------------------------|

G|------------------------|-------14--------10--------|-------------12----|-------14--------10--------|
D|-14-----12----12---12---|-12---------12--------12---|-14----10----10----|-12---------12--------12---|
A|-12-----10--------------|---------------------------|-------------------|---------------------------|
E|------------------------|---------------------------|-------------------|---------------------------|

G|-------------------|-------14--------10--------|-------------12----|-------14--------10--------|
D|-14----10----14----|-12---------12--------12---|-14----10----10----|-12---------12--------12---|
A|-------------12----|---------------------------|-------------------|---------------------------|
E|-------------------|---------------------------|-------------------|---------------------------|

G|-----------------|--------------------------------------|------------14---15--------|
D|-14----10--------|------------------13---12-------------|-------15------------------|
A|------------0----|-13----12----12-------------15---12---|-13-------------------0----|
E|-----------------|--------------------------------------|---------------------------|

G|----------------------------|-------------14--15---14--------|----------------------------|
D|--------13---12-------------|-------15------------------15---|--------13---12-------------|
A|-12---------------15---12---|-13-----------------------------|-12---------------15---12---|
E|----------------------------|--------------------------------|----------------------------|

G|------------14---15--------|----------------------------|-------------14--15---14--------|
D|-------15------------------|--------13---12-------------|-------15------------------15---|
A|-13-------------------0----|-12---------------15---12---|-13-----------------------------|
E|---------------------------|----------------------------|--------------------------------|

G|-----------16-------------|-----------14--------14--------|-----------13-------------|
D|------16--------16--------|------14--------14--------14---|------11--------11--------|
A|-14------------------14---|-12----------------------------|-11------------------11---|
E|--------------------------|-------------------------------|--------------------------|

G|-----------14--------14--------|-----------16-------------|-----------17--------17--------|
D|------12--------12--------12---|------16--------16--------|------17--------17--------17---|
A|-12----------------------------|-14------------------14---|-15----------------------------|
E|-------------------------------|--------------------------|-------------------------------|

G|-----------19------------------|------19--------19--------|-----------12-------------|
D|------17--------17-------------|-19--------19--------19---|------14--------14--------|
A|-17------------------17---17---|--------------------------|-15------------------15---|
E|-------------------------------|--------------------------|--------------------------|

G|-----------12------------------|-----------11--------12--------|------14----12--14--12-------12--------------------------------|
D|------14--------14-------------|------12--------12--------12---|------------------------16--------16--14--12-------------------|
A|-14------------------14---14---|-12----------------------------|-12--------------------------------------------15--14--12--12--|
E|-------------------------------|-------------------------------|---------------------------------------------------------------|

G|-----------12------------------|-17---19---17--19--17--16---17---16--17--16--|------16----------------------------------------------------16--------|
D|------14--------14--------0----|---------------------------------------------|-17--------17--------17---17---17--17--17--19---19--19--19------------|
A|-15------------------15--------|---------------------------------------------|----------------17-----------------------------------------------0----|
E|-------------------------------|---------------------------------------------|----------------------------------------------------------------------|

G|-----------12-------------|------19---19---17--19--17--16---17---16--17--16-------16------------------|
D|------14--------14--------|-0------------------------------------------------19--------17--------17---|
A|-15------------------15---|-----------------------------------------------------------------17--------|
E|--------------------------|---------------------------------------------------------------------------|

G|-----------------------------------16--------|--------------------------|-------------------------------|
D|-17---17--17--17--19---19--19--19------------|-----------10-------------|-----------14--------14--------|
A|----------------------------------------0----|------10--------10--------|------14--------14--------14---|
E|---------------------------------------------|-8-------------------8----|-12----------------------------|

G|-------------------------------|----------------------------------------------------|
D|-----------14--------14--------|----------------------------------------------------|
A|-0----12--------12--------12---|-12---12--12--12--10---10--10--10--7----7---7---7---|
E|-------------------------------|----------------------------------------------------|

G|-----------10--------10--------|-----------7----9----9----12---|-----------12--------12--------|
D|------10--------10--------10---|------7------------------------|------12--------12--------12---|
A|-8-----------------------------|-5-----------------------------|-10----------------------------|
E|-------------------------------|-------------------------------|-------------------------------|

G|-------------------|---------------------------------------|-------------------------------------------------------------|
D|-------------------|---------------------------------------|-7----7---------9----9---------10---10--------9----9---------|
A|-------------------|---------------------------------0-----|-----------0--------------0--------------0--------------0----|
E|-3-----5-----7-----|-3-----5-----7----7----7----5----------|-------------------------------------------------------------|

G|-------------------------------------------|-------------------------------------------------------------|
D|-7----7---------6----6---------7-----------|-7----7---------9----9---------10---10--------9----9---------|
A|-----------0--------------0----------0-----|-----------0--------------0--------------0--------------0----|
E|-------------------------------------------|-------------------------------------------------------------|

G|-------------------------------------------|-------------------------------|-------------------------------------|
D|-10---10--------14---14--------13----------|-10---10--------14---14--------|-13----------14----13----------14----|
A|-----------0--------------0----------0-----|-----------0--------------0----|-------0-----------------0-----------|
E|-------------------------------------------|-------------------------------|-------------------------------------|

G|-------------------------------|-------------18--------19--------|-18----18----18--------18--------|
D|-13----------14----13----19----|-19----19----19---19---19---19---|-19----19----19---19---19---19---|
A|-------0-----------------------|-0-----0-----0---------0---------|-0-----0-----0---------0---------|
E|-------------------------------|---------------------------------|---------------------------------|

G|-18--------18--------19--------18--------|-19--------18--------19--------18---18---|
D|-19---19---19---19---19---19---19---19---|-19---19---19---19---19---19---19---19---|
A|-0---------0---------0---------0---------|-0---------0---------0---------0----0----|
E|-----------------------------------------|-----------------------------------------|

G|---------------|-------------------------------------|---------------------------------|
D|---------------|-------------------------------------|---------------------------------|
A|-0-------------|------------2----0-------------------|-------5-----5---------5----7----|
E|---------17----|-0-----3--------------3----3----5----|-7----------------7--------------|

G|----------------------------------------|-------------------------------------|-----------------7-----7---------|
D|--------------------5---------5----7----|-7----7----7----7----7----7----5-----|------------5---------------5----|
A|-------5----5---7--------7--------------|-------------------------------------|-------X-------------------------|
E|-0--------------------------------------|-------------------------------------|-0-------------------------------|

G|-------------------------------------|-------------14----14--14--|-14----14--14--14---14---14---14----|
D|------5----7----7----5---------5-----|---------------------------|------------------------------------|
A|-7------------------------7----------|---------------------------|------------------------------------|
E|-------------------------------------|-0------0------------------|------------------------------------|

G|-------------12--------11----|-12--------11----12---12--12--11--------|----------------------------------------------|
D|------------------0----------|------0----------------------------0----|-17---14---19--14---19-14-21---14---19---14---|
A|-----------------------------|----------------------------------------|----------------------------------------------|
E|-0-----0---------------------|----------------------------------------|----------------------------------------------|

G|-------------------------------------|-16----12---16---16---12---16----|-12---16----12---16----16----|
D|-17---14---19---14---21---14---17----|---------------------------------|-----------------------------|
A|-------------------------------------|---------------------------------|-----------------------------|
E|-------------------------------------|---------------------------------|-----------------------------|

G|-16--12------12--16--12------12--16--12--12--12--12--12--14----|-14---14---12--------12----------|
D|---------14--------------14------------------------------------|----------------14---------14----|
A|---------------------------------------------------------------|---------------------------------|
E|---------------------------------------------------------------|---------------------------------|

G|----------------------------------------|----------------------------------------|
D|------------21---21---17--17-------20---|-20---20---20---19---17----%----%---19--|
A|------------------------------19--------|---------------------------%----%-------|
E|-0-----0--------------------------------|----------------------------------------|

G|------19--------19--------19--------19---|------19---19---19---19---19---------|-------------------------------------|
D|-19--------19--------19--------19--------|-19----------------------------17----|-------------------------------------|
A|-----------------------------------------|-------------------------------------|-------------------------------------|
E|-----------------------------------------|-------------------------------------|-0-----0----0----0----0----0----0----|

G|-----------------------------|-------------------------------------|---------------------------------|
D|-----------------------------|----------------------2----0---------|---------------------------------|
A|-----------------------------|--------------------------------3----|-2----1----0---------------------|
E|-0----0----0-----0-----0-----|-0-----0----0----0-------------------|----------------3----3-----0-----|

G|---------------------------------|-------------------------------|-15---14---12---14---12--------12----15---14---12---|
D|-----------------5---------------|-5-----------------5-----0-----|--------------------------14------------------------|
A|-------5----7---------5-----7----|-------5-----7-----------------|----------------------------------------------------|
E|-0-------------------------------|-------------------------------|----------------------------------------------------|

G|-14---12--------12----15---14---12---14---12--------|-12----------------------------------------------------|
D|-----------14----------------------------------14---|------14---12---14--12------12--12---------------------|
A|----------------------------------------------------|------------------------14-----------14---12--13--14---|
E|----------------------------------------------------|-------------------------------------------------------|

G|----------------------------------------|-----------------------------------------|
D|-12---14--12--12---12--------12---12----|-----------------------------------------|
A|------------------------14--------------|-----------------------------------------|
E|----------------------------------------|-0----0----0----0----0----0----0----0----|

G|-------------------------------------|-------------------------------------|-----------------------------|
D|-------------------------------------|-------------------------------------|-------------------14---14---|
A|---------------------2---------2-----|-------------------------------------|-----------------------------|
E|-0----0----0----0---------0----------|-0-----0----0----0----0----0----0----|-0-----0-----0---------------|

G|-12--------11------------------11----|-12--------14---14---12----------|---------------------------------|
D|-11---11--------11---14---11---------|------11-------------------------|---------------------------6-----|
A|-0-----------------------------------|---------------------------9-----|-7----0----9-----10---0----------|
E|-------------------------------------|---------------------------------|---------------------------------|

G|-------------------------------------------|---------------------------------|----------------------------------------|
D|-6----6---6---10----10--7---7----7---7-----|-8-----11---9----9-----12---10---|-1------11--11--14--14--11--11--14--12--|
A|-------------------------------------------|---------------------------------|----------------------------------------|
E|-------------------------------------------|---------------------------------|----------------------------------------|

G|------------------------------------------------------------|-----------16---15---16---17---19---19----|
D|-12--15---12--14--16--14--16--15---17---17---16---17---19---|-17---19------------------0---------------|
A|------------------------------------------------------------|------------------------------------------|
E|------------------------------------------------------------|------------------------------------------|

G|-19-----19----19--19--19--19--|-19---19---16--------16----19---16---|-19--16------16--19--16------16--19--16------16--19--16-------|
D|------------------------------|----------------17-------------------|---------17--------------17--------------17---------------17--|
A|------------------------------|-------------------------------------|--------------------------------------------------------------|
E|------------------------------|-------------------------------------|--------------------------------------------------------------|

G|-16--19----19---19---19---19---16--------|-16--------------------------------------|
D|------------------------------------17---|------17--------17------------------17---|
A|-----------------------------------------|-----------19--------19---17---19--------|
E|-----------------------------------------|-----------------------------------------|

G|-------------------------------------|-------------------------------------|-------------------------|
D|-19---19---19---19---19---19---19----|-------------------------------------|-------------------------|
A|-------------------------------------|-------------------------------------|-------------------------|
E|-------------------------------------|-0-----0----0----0----0----0----0----|-0-----0-----0-----0-----|

G|-----------------------------------------|---------------------------------|-----------------------------------------|
D|-----------------------------------------|---------------------------------|-----------------------------------------|
A|--------------------------5----5----5----|-5----5----5----5----2-----------|---------------------0--------------0----|
E|-0----0----0----0----0-------------------|---------------------------0-----|-0----0----0----0---------3----0---------|

G|-----------------------------------------|-----------------------------------------|
D|-----------------------------------------|-----------------------------------------|
A|-0----0----4----5----0----4----5----0----|-4----5----0----4----5----0----4----5----|
E|-----------------------------------------|-----------------------------------------|

G|-----------------------------------------|-----------------------------|---------------------------------|
D|-----------------------------------------|-------------5-----5----5----|-5----5--------------------5-----|
A|-0----0----0----0----0----0----0----0----|-----------------------------|-----------4-----4----4----------|
E|-----------------------------------------|-0-----0---------------------|---------------------------------|

G|-12-----10---10----9-----|-9---------------------9-----|-------------------------------------|
D|-------------------------|-------10----9----10---------|-10---9--------------------9----10---|
A|-------------------------|-----------------------------|-----------10---9----10--------------|
E|-------------------------|-----------------------------|-------------------------------------|

G|-------------------------|-------------------------|-------------------------|---------|
D|-------10----9-----------|-------------------------|-------------------16----|-16------|
A|-10----------------12----|-------------------------|-------14----14----14----|-14------|
E|-------------------------|-0-----0-----0-----0-----|-0-----0-----0-----0-----|-0-------|

G|-X-----X-------|
D|-X-----X-------|
A|---------------|
E|---------------|
Metallica - Anesthesia Pulling teeth with Wah sound
Metallica - Anesthesia Pulling teeth with Wah sound.gp3