Metallica - Apocalypse Dawn

Metallica - Apocalypse Dawn

Metallica



Title: Apocolypse Dawn
Album: (For Total Guitar)
Artist: Metallica
Author: 

Track 1: Distortion Guitar
E|---------|---------|---------|---------|---------|---------|---------|---------|---------|
B|---------|---------|---------|---------|---------|---------|---------|---------|---------|
G|-%-------|-%-------|-%-------|-%-------|-%-------|-%-------|-%-------|-%-------|-%-------|
D|-%-------|-%-------|-%-------|-%-------|-%-------|-%-------|-%-------|-%-------|-%-------|
A|---------|---------|---------|---------|---------|---------|---------|---------|---------|
E|---------|---------|---------|---------|---------|---------|---------|---------|---------|

E|---------|---------|---------|---------|---------|---------|---------|---------|---------|
B|---------|---------|---------|---------|---------|---------|---------|---------|---------|
G|-%-------|-%-------|-%-------|-%-------|-%-------|-%-------|-%-------|-%-------|-%-------|
D|-%-------|-%-------|-%-------|-%-------|-%-------|-%-------|-%-------|-%-------|-%-------|
A|---------|---------|---------|---------|---------|---------|---------|---------|---------|
E|---------|---------|---------|---------|---------|---------|---------|---------|---------|

E|---------|---------|---------|-----------------------------------------|-----------------------------------------|
B|---------|---------|---------|-----------------------------------------|-----------------------------------------|
G|-%-------|-%-------|-%-------|-----------------------------------------|-----------------------------------------|
D|-%-------|-%-------|-%-------|-----------------------------------------|-----------------------------------------|
A|---------|---------|---------|-2----2----2----2----2----2----2----2----|-2----2----2----2----2----2----2----2----|
E|---------|---------|---------|-0----0----0----0----0----0----0----0----|-0----0----0----0----0----0----0----0----|

E|-----------------------------------------|--------------------------------------------|
B|-----------------------------------------|--------------------------------------------|
G|-----------------------------------------|--------------------------------------------|
D|------5----4-----------------------------|--------------------------------------------|
A|------3----2--------------7---------7----|------6---------5----5------------5----7----|
E|-0--------------0----0---------0----5----|-0----4----0----3----3----5---7-------------|

E|-----------------------------------------|---------------------------------------------------|
B|-----------------------------------------|---------------------------------------------------|
G|-----------------------------------------|---------------------------------------------------|
D|------5----4-----------------------------|---------------------------------------------------|
A|------3----2--------------7---------7----|------6---------5----5----8----7---------5----7----|
E|-0--------------0----0---------0----5----|-0----4----0----3----3----6----5----0----3----5----|

E|-----------------------------------------|--------------------------------------------|
B|-----------------------------------------|--------------------------------------------|
G|-----------------------------------------|--------------------------------------------|
D|------5----4-----------------------------|--------------------------------------------|
A|------3----2--------------7---------7----|------6---------5----5------------5----7----|
E|-0--------------0----0---------0----5----|-0----4----0----3----3----5---7-------------|

E|-----------------------------------------|---------------------------------------------------|
B|-----------------------------------------|---------------------------------------------------|
G|-----------------------------------------|---------------------------------------------------|
D|------5----4-----------------------------|---------------------------------------------------|
A|------3----2--------------7---------7----|------6---------5----5----8----7---------5----7----|
E|-0--------------0----0---------0----5----|-0----4----0----3----3----6----5----0----3----5----|

E|-----------------------------------------|--------------------------------------------|
B|-----------------------------------------|--------------------------------------------|
G|-----------------------------------------|--------------------------------------------|
D|------5----4-----------------------------|--------------------------------------------|
A|------3----2--------------7---------7----|------6---------5----5------------5----7----|
E|-0--------------0----0---------0----5----|-0----4----0----3----3----5---7-------------|

E|-----------------------------------------|---------------------------------------------------|
B|-----------------------------------------|---------------------------------------------------|
G|-----------------------------------------|---------------------------------------------------|
D|------5----4-----------------------------|---------------------------------------------------|
A|------3----2--------------7---------7----|------6---------5----5----8----7---------5----7----|
E|-0--------------0----0---------0----5----|-0----4----0----3----3----6----5----0----3----5----|

E|-----------------------------------------|--------------------------------------------|
B|-----------------------------------------|--------------------------------------------|
G|-----------------------------------------|--------------------------------------------|
D|------5----4-----------------------------|--------------------------------------------|
A|------3----2--------------7---------7----|------6---------5----5------------5----7----|
E|-0--------------0----0---------0----5----|-0----4----0----3----3----5---7-------------|

E|-----------------------------------------|---------------------------------------------------|
B|-----------------------------------------|---------------------------------------------------|
G|-----------------------------------------|---------------------------------------------------|
D|------5----4-----------------------------|---------------------------------------------------|
A|------3----2--------------7---------7----|------6---------5----5----8----7---------5----7----|
E|-0--------------0----0---------0----5----|-0----4----0----3----3----6----5----0----3----5----|

E|--------------------------------------------------|--------------------------------------------------|
B|--------------------------------------------------|--------------------------------------------------|
G|--------------------------------------------------|--------------------------------------------------|
D|--------------5----4------------------------------|--------------------------------------------------|
A|--------------3----2------------3------------2----|---------8----8----7-------------------------5----|
E|-0----0---0-------------0---0---1----0---0---0----|-0---0---6----6----5----0----0---0---0---0---3----|

E|--------------------------------------------------|-----------------------------------------------------|
B|--------------------------------------------------|-----------------------------------------------------|
G|--------------------------------------------------|-----------------------------------------------------|
D|--------------5----4------------------------------|-----------------------------------------------------|
A|--------------3----2------------3------------2----|--------------2--------------------5------------5----|
E|-0----0---0-------------0---0---1----0---0---0----|-0---0---0----0----0---0---0---0---3----0---0---3----|

E|--------------------------------------------------|--------------------------------------------------|
B|--------------------------------------------------|--------------------------------------------------|
G|--------------------------------------------------|--------------------------------------------------|
D|--------------5----4------------------------------|--------------------------------------------------|
A|--------------3----2------------3------------2----|---------8----8----7-------------------------5----|
E|-0----0---0-------------0---0---1----0---0---0----|-0---0---6----6----5----0----0---0---0---0---3----|

E|--------------------------------------------------|-----------------------------------------------------|
B|--------------------------------------------------|-----------------------------------------------------|
G|--------------------------------------------------|-----------------------------------------------------|
D|--------------5----4------------------------------|-----------------------------------------------------|
A|--------------3----2------------3------------2----|--------------2--------------------5------------5----|
E|-0----0---0-------------0---0---1----0---0---0----|-0---0---0----0----0---0---0---0---3----0---0---3----|

E|--------------------------------------------------|--------------------------------------------------|
B|--------------------------------------------------|--------------------------------------------------|
G|--------------------------------------------------|--------------------------------------------------|
D|--------------5----4------------------------------|--------------------------------------------------|
A|--------------3----2------------3------------2----|---------8----8----7-------------------------5----|
E|-0----0---0-------------0---0---1----0---0---0----|-0---0---6----6----5----0----0---0---0---0---3----|

E|--------------------------------------------------|-----------------------------------------------------|
B|--------------------------------------------------|-----------------------------------------------------|
G|--------------------------------------------------|-----------------------------------------------------|
D|--------------5----4------------------------------|-----------------------------------------------------|
A|--------------3----2------------3------------2----|--------------2--------------------5------------5----|
E|-0----0---0-------------0---0---1----0---0---0----|-0---0---0----0----0---0---0---0---3----0---0---3----|

E|--------------------------------------------------|--------------------------------------------------|
B|--------------------------------------------------|--------------------------------------------------|
G|--------------------------------------------------|--------------------------------------------------|
D|--------------5----4------------------------------|--------------------------------------------------|
A|--------------3----2------------3------------2----|---------8----8----7-------------------------5----|
E|-0----0---0-------------0---0---1----0---0---0----|-0---0---6----6----5----0----0---0---0---0---3----|

E|--------------------------------------------------|-----------------------------------------------------|
B|--------------------------------------------------|-----------------------------------------------------|
G|--------------------------------------------------|-----------------------------------------------------|
D|--------------5----4------------------------------|-----------------------------------------------------|
A|--------------3----2------------3------------2----|--------------2--------------------5------------5----|
E|-0----0---0-------------0---0---1----0---0---0----|-0---0---0----0----0---0---0---0---3----0---0---3----|

E|---------|---------|---------|---------|---------|---------|---------|---------|---------|
B|---------|---------|---------|---------|---------|---------|---------|---------|---------|
G|---------|-%-------|-%-------|-%-------|-%-------|-%-------|-%-------|-%-------|-%-------|
D|---------|-%-------|-%-------|-%-------|-%-------|-%-------|-%-------|-%-------|-%-------|
A|-2-------|---------|---------|---------|---------|---------|---------|---------|---------|
E|-0-------|---------|---------|---------|---------|---------|---------|---------|---------|

E|---------|---------|---------|---------|---------------------------------|---------------------------------|
B|---------|---------|---------|---------|---------------------------------|---------------------------------|
G|-%-------|-%-------|-%-------|-%-------|-----------------%---------5-----|-5-----5-------------------------|
D|-%-------|-%-------|-%-------|-%-------|-2-----2----2----%----2----5-----|-5-----5----5-----5----4----3----|
A|---------|---------|---------|---------|-2-----2----2---------2----3-----|-3-----3----5-----5----4----3----|
E|---------|---------|---------|---------|-0-----0----0---------0----------|------------3-----3----2----1----|

E|-------------------------------------|---------------|---------------------------------|
B|-------------------------------------|---------------|---------------------------------|
G|-------------------------------------|---------------|-----------------%---------5-----|
D|-2-----2----2----2----2----2----4----|-5------3------|-2-----2----2----%----2----5-----|
A|-2-----2----2----2----2----2----4----|-5------3------|-2-----2----2---------2----3-----|
E|-0-----0----0----0----0----0----2----|-3------1------|-0-----0----0---------0----------|

E|---------------------------------|-------------------------------------|---------------|
B|---------------------------------|-------------------------------------|---------------|
G|-5-----5-------------------------|-------------------------------------|---------------|
D|-5-----5----5-----5----4----3----|-2-----2----2----2----2----2----4----|-5------3------|
A|-3-----3----5-----5----4----3----|-2-----2----2----2----2----2----4----|-5------3------|
E|------------3-----3----2----1----|-0-----0----0----0----0----0----2----|-3------1------|

E|---------|---------|---------|---------|---------|---------|---------|---------|---------|
B|---------|---------|---------|---------|---------|---------|---------|---------|---------|
G|-%-------|-%-------|-%-------|-%-------|-%-------|-%-------|-%-------|-%-------|-%-------|
D|-%-------|-%-------|-%-------|-%-------|-%-------|-%-------|-%-------|-%-------|-%-------|
A|---------|---------|---------|---------|---------|---------|---------|---------|---------|
E|---------|---------|---------|---------|---------|---------|---------|---------|---------|

E|---------|---------|---------|---------|---------|---------|---------|---------|-----------------------------------------|
B|---------|---------|---------|---------|---------|---------|---------|---------|-----------------------------------------|
G|-%-------|-%-------|-%-------|-%-------|-%-------|-%-------|---------|---------|------%----%----%----%---------%---------|
D|-%-------|-%-------|-%-------|-%-------|-%-------|-%-------|---------|---------|------%----%----%----%---------%---------|
A|---------|---------|---------|---------|---------|---------|-2-------|-2-------|-2------------------------2---------2----|
E|---------|---------|---------|---------|---------|---------|-0-------|-0-------|-0------------------------0---------0----|

E|-----------------------------------------|-----------------------------------------|
B|-----------------------------------------|-----------------------------------------|
G|------%----%----%----%----%----%---------|------%----%----%----%---------%---------|
D|------%----%----%----%----%----%---------|------%----%----%----%---------%---------|
A|-2----------------------------------2----|-2------------------------2---------2----|
E|-0----------------------------------0----|-0------------------------0---------0----|

E|-----------------------------------------|-----------------------------------------|
B|-----------------------------------------|-----------------------------------------|
G|------%----%---------%---------%---------|------%----%----%----%---------%---------|
D|------%----%---------%---------%---------|------%----%----%----%---------%---------|
A|-2--------------2---------2---------2----|-2------------------------2---------2----|
E|-0--------------0---------0---------0----|-0------------------------0---------0----|

E|-----------------------------------------|-----------------------------------------|
B|-----------------------------------------|-----------------------------------------|
G|------%----%----%----%----%----%---------|------%----%----%----%---------%---------|
D|------%----%----%----%----%----%---------|------%----%----%----%---------%---------|
A|-2----------------------------------2----|-2------------------------2---------2----|
E|-0----------------------------------0----|-0------------------------0---------0----|

E|-----------------------------------------|-----------------------------------------|
B|-----------------------------------------|-----------------------------------------|
G|------%----%----%----%----%----%----%----|-----------------------------------------|
D|------%----%----%----%----%----%----%----|-----------------------------------------|
A|-2---------------------------------------|-2------------------------2---------2----|
E|-0---------------------------------------|-0----0----0----0----0----0----0----0----|

E|-----------------------------------------|-----------------------------------------|
B|-----------------------------------------|-----------------------------------------|
G|-----------------------------------------|-----------------------------------------|
D|-----------------------------------------|-----------------------------------------|
A|-2------------------------5----5----5----|-2------------------------2---------2----|
E|-0----0----0----0----0----3----3----3----|-0----0----0----0----0----0----0----0----|

E|-----------------------------------------|-----------------------------------------|
B|-----------------------------------------|-----------------------------------------|
G|-----------------------------------------|-----------------------------------------|
D|--------------------------3----3----3----|-----------------------------------------|
A|-2------------------------1----1----1----|-2------------------------2---------2----|
E|-0----0----0----0----0-------------------|-0----0----0----0----0----0----0----0----|

E|-----------------------------------------|-----------------------------------------|
B|-----------------------------------------|-----------------------------------------|
G|-----------------------------------------|-----------------------------------------|
D|-----------------------------------------|-----------------------------------------|
A|-2------------------------2----2----2----|-2------------------------2---------2----|
E|-0----0----0----0----0----0----0----0----|-0----0----0----0----0----0----0----0----|

E|-----------------------------------------|-----------------------------------------|
B|-----------------------------------------|-----------------------------------------|
G|-----------------------------------------|-----------------------------------------|
D|--------------------------3----3----3----|-----------------------------------------|
A|-2------------------------1----1----1----|-2------------------------2---------2----|
E|-0----0----0----0----0-------------------|-0----0----0----0----0----0----0----0----|

E|-----------------------------------------|-----------------------------------------|
B|-----------------------------------------|-----------------------------------------|
G|-----------------------------------------|-----------------------------------------|
D|-----------------------------------------|-----------------------------------------|
A|-2------------------------5----5----5----|-2------------------------2---------2----|
E|-0----0----0----0----0----3----3----3----|-0----0----0----0----0----0----0----0----|

E|-----------------------------------------|---------|---------|-----------------------------------------|
B|-----------------------------------------|---------|---------|-----------------------------------------|
G|-----------------------------------------|---------|---------|------%----%---------%---------%---------|
D|--------------------------3----3----3----|---------|---------|------%----%----3----%----3----%----3----|
A|-2------------------------1----1----1----|-2-------|-2-------|-2--------------1---------1---------1----|
E|-0----0----0----0----0-------------------|-0-------|-0-------|-0---------------------------------------|

E|-----------------------------------------|---------|
B|-----------------------------------------|---------|
G|------%----%----%----%----%----%----%----|-%-------|
D|------%----%----%----%----%----%----%----|-%-------|
A|-2---------------------------------------|---------|
E|-0---------------------------------------|---------|
Metallica - Apocalypse Dawn
Metallica - Apocalypse Dawn.gp4