Metallica - Attitude

Metallica - Attitude

Metallica



Title: Attitude
Album: 
Artist: 
Author: Metallica

Track 1: Guitar 1
D#|---------------------------|---------------------------------|--------------------|
A#|---------------------------|---------------------------------|--------------------|
F#|-%------%-----%----5--7----|-7-----7----5----7----5----------|--------------------|
C#|-%------%-----%------------|---------------------------7-----|-7------7-----------|
G#|---------------------------|---------------------------------|--------------12----|
D#|---------------------------|---------------------------------|--------------12----|

D#|--------------------------------------------|---------|-------------------------------|
A#|--------------------------------------------|---------|-------------------------------|
F#|-----------%---------%---------%------------|---------|-----------------------5--7----|
C#|------5----%----5----%----5----%----5--7----|-7-------|-7------7----------------------|
G#|------5---------5---------5---------5--7----|-7-------|-7------7----5----0------------|
D#|-0----3---------3---------3---------3--5----|-5-------|-5------5----------------------|

D#|---------------------------------|-------------------------|-------------------------------------|
A#|---------------------------------|-------------------------|-------------------------------------|
F#|-7-----7----5----7----5----------|-------------------------|--------------------------------7----|
C#|---------------------------7-----|-7-------5--3----5--7----|-7-----7----5----7----5--------------|
G#|---------------------------------|-------------------------|---------------------------7---------|
D#|---------------------------------|-------------------------|-------------------------------------|

D#|-------------------------------------|-------------------------------------|-------------------------------------|
A#|-------------------------------------|-------------------------------------|-------------------------------------|
F#|-7-----7----5----7----5---------9----|-9------------------------------9----|-9------------------------------9----|
C#|---------------------------7----9----|-9---------------4----5----5----9----|-9---------------4----5----5----9----|
G#|--------------------------------7----|-7---------------5----5----5----7----|-7---------------5----5----5----7----|
D#|-------------------------------------|-------0----0------------------------|-------0----0------------------------|

D#|-------------------------------------|-----------------------------------------|
A#|-------------------------------------|-----------------------------------------|
F#|-9-----------------------------------|--------------------------7----%----9----|
C#|-9---------------4----5----5----5----|-5----7----7---------7----7----%----9----|
G#|-7---------------5----5----5----5----|-5----7----7---------7----5---------7----|
D#|-------0----0-------------------3----|-3----5----5----0----5-------------------|

D#|-------------------------------------|-------------------------------------|-------------------------------------|
A#|-------------------------------------|-------------------------------------|-------------------------------------|
F#|-9------------------------------9----|-9------------------------------9----|-9-----------------------------------|
C#|-9---------------4----5----5----9----|-9---------------4----5----5----9----|-9---------------4----5----5----5----|
G#|-7---------------5----5----5----7----|-7---------------5----5----5----7----|-7---------------5----5----5----5----|
D#|-------0----0------------------------|-------0----0------------------------|-------0----0-------------------3----|

D#|-----------------------------------------|-------------------------------------|
A#|-----------------------------------------|-------------------------------------|
F#|--------------------------7----%----9----|-9------------------------------9----|
C#|-5----7----7---------7----7----%----9----|-9---------------4----5----5----9----|
G#|-5----7----7---------7----5---------7----|-7---------------5----5----5----7----|
D#|-3----5----5----0----5-------------------|-------0----0------------------------|

D#|-------------------------------------|-------------------------------------|-----------------------------------------|
A#|-------------------------------------|-------------------------------------|-----------------------------------------|
F#|-9------------------------------9----|-9-----------------------------------|--------------------------7----%----9----|
C#|-9---------------4----5----5----9----|-9---------------4----5----5----5----|-5----7----7---------7----7----%----9----|
G#|-7---------------5----5----5----7----|-7---------------5----5----5----5----|-5----7----7---------7----5---------7----|
D#|-------0----0------------------------|-------0----0-------------------3----|-3----5----5----0----5-------------------|

D#|----------------------------|----------------------------|---------------------------------|
A#|----------------------------|----------------------------|---------------------------------|
F#|-9------9-------------------|----------------------------|---------------------------------|
C#|-9------9-------------------|----------------------------|---------------------------------|
G#|-7------7----7----7----6----|-6------2-------------------|-1---------2-----2---------------|
D#|----------------------------|-------------0----0----0----|------3----0-----0-----0----0----|

D#|--------------------------------------------|---------------------------------|-----------------------------------------|
A#|--------------------------------------------|---------------------------------|-----------------------------------------|
F#|--------------------------------------------|---------------------------------|-----------------------------------------|
C#|-5--7----7----7----5----5-------------------|---------------------------------|-5----5----5----7----7-------------------|
G#|--------------------------------------------|-1---------2-----2---------------|-----------------------------------------|
D#|-3--5----5----5----3----3----0----0----3----|------3----0-----0-----0----0----|-3----3----3----5----5----0----0----3----|

D#|---------------------------------|--------------------------------------------|---------------------------------|
A#|---------------------------------|--------------------------------------------|---------------------------------|
F#|---------------------------------|--------------------------------------------|-----------------------%---------|
C#|---------------------------------|-5--7----7----7----5----5-------------------|-----------------------%---------|
G#|-1---------2-----2---------------|--------------------------------------------|-1---------2-----2----------2----|
D#|------3----0-----0-----0----0----|-3--5----5----5----3----3----0----0----3----|------3----0-----0----------0----|

D#|----------------------------|---------------------------------|--------------------------------------------|
A#|----------------------------|---------------------------------|--------------------------------------------|
F#|----------------------------|---------------------------------|--------------------------------------------|
C#|----------------------------|---------------------------------|-5--7----7----7----5----5-------------------|
G#|-2------2-------------------|-1---------2-----2---------------|--------------------------------------------|
D#|-0------0----0----0----3----|------3----0-----0-----0----0----|-3--5----5----5----3----3----0----0----3----|

D#|---------------------------------|-----------------------------------------|---------------------------------|
A#|---------------------------------|-----------------------------------------|---------------------------------|
F#|---------------------------------|-----------------------------------------|---------------------------------|
C#|---------------------------------|-5----5----5----7----7-------------------|---------------------------------|
G#|-1---------2-----2---------------|-----------------------------------------|-1---------2-----2---------------|
D#|------3----0-----0-----0----0----|-3----3----3----5----5----0----0----3----|------3----0-----0-----0----0----|

D#|--------------------------------------------|---------------------------------|-----------------------------------------|
A#|--------------------------------------------|---------------------------------|-----------------------------------------|
F#|--------------------------------------------|---------------------------------|-----------------------------------------|
C#|-5--7----7----7----5----5-------------------|---------------------------------|-5----5----5----7----7-------------------|
G#|--------------------------------------------|-1---------2-----2---------------|--------------------------0----3----0----|
D#|-3--5----5----5----3----3----0----0----3----|------3----0-----0-----0----0----|-3----3----3----5----5-------------------|

D#|-------------------------------------|----------------------------|-------------------------------------|
A#|-------------------------------------|----------------------------|-------------------------------------|
F#|-7----7----7----8--------------5-----|-5--------------------------|-7----7----7----8--------------5-----|
C#|-7----7----7----8---------0----5-----|-5--------------------------|-7----7----7----8--------------5-----|
G#|-5----5----5----6----0----0----3-----|-3------3----0----3----0----|-5----5----5----6----0----0----3-----|
D#|-------------------------------------|----------------------------|-------------------------------------|

D#|----------------------------|-------------------------------------|-----------------------------------------|
A#|----------------------------|-------------------------------------|-----------------------------------------|
F#|-5------5-------------------|-7----7----7----8--------------5-----|-----------%---------%---------%---------|
C#|-5------5-------------------|-7----7----7----8---------0----5-----|------5----%----5----%----5----%----5----|
G#|-3------3----0----3----0----|-5----5----5----6----0----0----3-----|------5---------5---------5---------5----|
D#|----------------------------|-------------------------------------|-0----3---------3---------3---------3----|

D#|-------------------------------------|-----------------------------------------|
A#|-------------------------------------|-----------------------------------------|
F#|-------------------------------------|-----------------------------------------|
C#|-7----7----7----8--------------5-----|-5-----------------------------5---------|
G#|-7----7----7----8--------------5-----|-5-----------------------------5---------|
D#|-5----5----5----6----0----0----3-----|-3----0----0----0----0----0----3----0----|

D#|-------------------------------------|-----------------------------------------|
A#|-------------------------------------|-----------------------------------------|
F#|-------------------------------------|-----------------------------------------|
C#|-7----7----7----8--------------5-----|-5-----------------------------5---------|
G#|-7----7----7----8--------------5-----|-5-----------------------------5---------|
D#|-5----5----5----6----0----0----3-----|-3----0----0----0----0----0----3----0----|

D#|-------------------------------------|-----------------------------------------|
A#|-------------------------------------|-----------------------------------------|
F#|-------------------------------------|-----------------------------------------|
C#|-7----7----7----8--------------5-----|-5-----------------------------5---------|
G#|-7----7----7----8--------------5-----|-5-----------------------------5---------|
D#|-5----5----5----6----0----0----3-----|-3----0----0----0----0----0----3----0----|

D#|-------------------------------------|-----------------------------------------|
A#|-------------------------------------|-----------------------------------------|
F#|-------------------------------------|-----------%---------%---------%---------|
C#|-7----7----7----8--------------5-----|------5----%----5----%----5----%----7----|
G#|-7----7----7----8--------------5-----|------5---------5---------5---------7----|
D#|-5----5----5----6----0----0----3-----|-0----3---------3---------3---------5----|

D#|-------------------------|-------------------------------------|-------------------------------------|
A#|-------------------------|-------------------------------------|-------------------------------------|
F#|-------------------------|--------------------------------7----|-7-----7----5----7----5---------9----|
C#|-7-------5--3----5--7----|-7-----7----5----7----5--------------|---------------------------7----9----|
G#|-7-----------------------|---------------------------7---------|--------------------------------7----|
D#|-5-----------------------|-------------------------------------|-------------------------------------|

D#|-------------------------------------|-------------------------------------|-------------------------------------|
A#|-------------------------------------|-------------------------------------|-------------------------------------|
F#|-9------------------------------9----|-9------------------------------9----|-9-----------------------------------|
C#|-9---------------4----5----5----9----|-9---------------4----5----5----9----|-9---------------4----5----5----5----|
G#|-7---------------5----5----5----7----|-7---------------5----5----5----7----|-7---------------5----5----5----5----|
D#|-------0----0------------------------|-------0----0------------------------|-------0----0-------------------3----|

D#|-----------------------------------------|-------------------------------------|
A#|-----------------------------------------|-------------------------------------|
F#|--------------------------7----%----9----|-9------------------------------9----|
C#|-5----7----7---------7----7----%----9----|-9---------------4----5----5----9----|
G#|-5----7----7---------7----5---------7----|-7---------------5----5----5----7----|
D#|-3----5----5----0----5-------------------|-------0----0------------------------|

D#|-------------------------------------|-------------------------------------|-----------------------------------------|
A#|-------------------------------------|-------------------------------------|-----------------------------------------|
F#|-9------------------------------9----|-9-----------------------------------|--------------------------7----%----9----|
C#|-9---------------4----5----5----9----|-9---------------4----5----5----5----|-5----7----7---------7----7----%----9----|
G#|-7---------------5----5----5----7----|-7---------------5----5----5----5----|-5----7----7---------7----5---------7----|
D#|-------0----0------------------------|-------0----0-------------------3----|-3----5----5----0----5-------------------|

D#|----------------------------|-----------------------------------------|---------------------------------|
A#|----------------------------|-----------------------------------------|---------------------------------|
F#|-9------9----9----8----8----|-7----6----5-----------------------------|---------------------------------|
C#|-9------9----9----8----8----|-7----6----5-----------------------------|---------------------------------|
G#|-7------7----7----6----6----|-5----4----3----3----13------------------|-1---------2-----2---------------|
D#|----------------------------|--------------------------0----0----3----|------3----0-----0-----0----0----|

D#|--------------------------------------------|---------------------------------|-----------------------------------------|
A#|--------------------------------------------|---------------------------------|-----------------------------------------|
F#|--------------------------------------------|---------------------------------|-----------------------------------------|
C#|-5--7----7----7----5----5-------------------|---------------------------------|-5----5----5----7----7-------------------|
G#|--------------------------------------------|-1---------2-----2---------------|-----------------------------------------|
D#|-3--5----5----5----3----3----0----0----3----|------3----0-----0-----0----0----|-3----3----3----5----5----0----0----3----|

D#|---------------------------------|--------------------------------------------|---------------------------------|
A#|---------------------------------|--------------------------------------------|---------------------------------|
F#|---------------------------------|--------------------------------------------|-----------------------%---------|
C#|---------------------------------|-5--7----7----7----5----5-------------------|-----------------------%---------|
G#|-1---------2-----2---------------|--------------------------------------------|-1---------2-----2----------2----|
D#|------3----0-----0-----0----0----|-3--5----5----5----3----3----0----0----3----|------3----0-----0----------0----|

D#|----------------------------|---------------------------------|--------------------------------------------|
A#|----------------------------|---------------------------------|--------------------------------------------|
F#|----------------------------|---------------------------------|--------------------------------------------|
C#|----------------------------|---------------------------------|-5--7----7----7----5----5-------------------|
G#|-2------2-------------------|-1---------2-----2---------------|--------------------------------------------|
D#|-0------0----0----0----3----|------3----0-----0-----0----0----|-3--5----5----5----3----3----0----0----3----|

D#|---------------------------------|-----------------------------------------|---------------------------------|
A#|---------------------------------|-----------------------------------------|---------------------------------|
F#|---------------------------------|-----------------------------------------|---------------------------------|
C#|---------------------------------|-5----5----5----7----7-------------------|---------------------------------|
G#|-1---------2-----2---------------|-----------------------------------------|-1---------2-----2---------------|
D#|------3----0-----0-----0----0----|-3----3----3----5----5----0----0----3----|------3----0-----0-----0----0----|

D#|--------------------------------------------|---------------------------------|-----------------------------------------|
A#|--------------------------------------------|---------------------------------|-----------------------------------------|
F#|--------------------------------------------|---------------------------------|-----------------------------------------|
C#|-5--7----7----7----5----5-------------------|---------------------------------|-5----5----5----7----7-------------------|
G#|--------------------------------------------|-1---------2-----2---------------|--------------------------0----3----0----|
D#|-3--5----5----5----3----3----0----0----3----|------3----0-----0-----0----0----|-3----3----3----5----5-------------------|

D#|-------------------------------------|----------------------------|-------------------------------------|
A#|-------------------------------------|----------------------------|-------------------------------------|
F#|-7----7----7----8--------------5-----|-5--------------------------|-7----7----7----8--------------5-----|
C#|-7----7----7----8---------0----5-----|-5--------------------------|-7----7----7----8--------------5-----|
G#|-5----5----5----6----0----0----3-----|-3------3----0----3----0----|-5----5----5----6----0----0----3-----|
D#|-------------------------------------|----------------------------|-------------------------------------|

D#|----------------------------|-------------------------------------|-----------------------------------------|
A#|----------------------------|-------------------------------------|-----------------------------------------|
F#|-5------5-------------------|-7----7----7----8--------------5-----|-----------%---------%---------%---------|
C#|-5------5-------------------|-7----7----7----8---------0----5-----|------5----%----5----%----5----%----5----|
G#|-3------3----0----3----0----|-5----5----5----6----0----0----3-----|------5---------5---------5---------5----|
D#|----------------------------|-------------------------------------|-0----3---------3---------3---------3----|

D#|-------------------------------------|-----------------------------------------|
A#|-------------------------------------|-----------------------------------------|
F#|-------------------------------------|-----------------------------------------|
C#|-7----7----7----8--------------5-----|-5-----------------------------5---------|
G#|-7----7----7----8--------------5-----|-5-----------------------------5---------|
D#|-5----5----5----6----0----0----3-----|-3----0----0----0----0----0----3----0----|

D#|-------------------------------------|-----------------------------------------|
A#|-------------------------------------|-----------------------------------------|
F#|-------------------------------------|-----------------------------------------|
C#|-7----7----7----8--------------5-----|-5-----------------------------5---------|
G#|-7----7----7----8--------------5-----|-5-----------------------------5---------|
D#|-5----5----5----6----0----0----3-----|-3----0----0----0----0----0----3----0----|

D#|-------------------------------------|-----------------------------------------|
A#|-------------------------------------|-----------------------------------------|
F#|-------------------------------------|-----------------------------------------|
C#|-7----7----7----8--------------5-----|-5-----------------------------5---------|
G#|-7----7----7----8--------------5-----|-5-----------------------------5---------|
D#|-5----5----5----6----0----0----3-----|-3----0----0----0----0----0----3----0----|

D#|-------------------------------------|-----------------------------------------|
A#|-------------------------------------|-----------------------------------------|
F#|-------------------------------------|-----------%---------%---------%---------|
C#|-7----7----7----8--------------5-----|------5----%----5----%----5----%----5----|
G#|-7----7----7----8--------------5-----|------5---------5---------5---------5----|
D#|-5----5----5----6----0----0----3-----|-0----3---------3---------3---------3----|

D#|-------------------------------------|-----------------------------------------|
A#|-------------------------------------|-----------------------------------------|
F#|-------------------------------------|-----------------------------------------|
C#|-7----7----7----8--------------5-----|-5-----------------------------5---------|
G#|-7----7----7----8--------------5-----|-5-----------------------------5---------|
D#|-5----5----5----6----0----0----3-----|-3----0----0----0----0----0----3----0----|

D#|-------------------------------------|-----------------------------------------|
A#|-------------------------------------|-----------------------------------------|
F#|-------------------------------------|-----------------------------------------|
C#|-7----7----7----8--------------5-----|-5-----------------------------5---------|
G#|-7----7----7----8--------------5-----|-5-----------------------------5---------|
D#|-5----5----5----6----0----0----3-----|-3----0----0----0----0----0----3----0----|

D#|-------------------------------------|-----------------------------------------|
A#|-------------------------------------|-----------------------------------------|
F#|-------------------------------------|-----------------------------------------|
C#|-7----7----7----8--------------5-----|-5-----------------------------5---------|
G#|-7----7----7----8--------------5-----|-5-----------------------------5---------|
D#|-5----5----5----6----0----0----3-----|-3----0----0----0----0----0----3----0----|

D#|-------------------------------------|-----------------------------------------|
A#|-------------------------------------|-----------------------------------------|
F#|-------------------------------------|-----------%---------%---------%---------|
C#|-7----7----7----8--------------5-----|------5----%----5----%----5----%----7----|
G#|-7----7----7----8--------------5-----|------5---------5---------5---------7----|
D#|-5----5----5----6----0----0----3-----|-0----3---------3---------3---------5----|

D#|-------------------------|-------------------------------------|-------------------------------------|
A#|-------------------------|-------------------------------------|-------------------------------------|
F#|-------------------------|--------------------------------7----|-7-----7----5----7----5---------9----|
C#|-7-------5--3----5--7----|-7-----7----5----7----5--------------|---------------------------7----9----|
G#|-7-----------------------|---------------------------7---------|--------------------------------7----|
D#|-5-----------------------|-------------------------------------|-------------------------------------|

D#|-------------------------------------|-------------------------------------|-------------------------------------|
A#|-------------------------------------|-------------------------------------|-------------------------------------|
F#|-9------------------------------9----|-9------------------------------9----|-9-----------------------------------|
C#|-9---------------4----5----5----9----|-9---------------4----5----5----9----|-9---------------4----5----5----5----|
G#|-7---------------5----5----5----7----|-7---------------5----5----5----7----|-7---------------5----5----5----5----|
D#|-------0----0------------------------|-------0----0------------------------|-------0----0-------------------3----|

D#|-----------------------------------------|-------------------------------------|
A#|-----------------------------------------|-----------------7----8----8----8----|
F#|--------------------------7----%----9----|-9------------------------------9----|
C#|-5----7----7---------7----7----%----9----|-9-----------------------------------|
G#|-5----7----7---------7----5---------7----|-7-----------------------------------|
D#|-3----5----5----0----5-------------------|-------0----0------------------------|

D#|----------------------------------------|-------------------------------------|----------------------------------------|
A#|-8--------------------------------------|-----------------7----8----8----8----|-8--------------------------------------|
F#|-9-----------------------7----9---------|--------------------------------9----|-9-----------------------7----9---------|
C#|-------7--9----7----9--------------9----|-9-----------------------------------|-------7--9----7----9--------------9----|
G#|----------------------------------------|-------------------------------------|----------------------------------------|
D#|----------------------------------------|-------0----0------------------------|----------------------------------------|

D#|-------------------------------------|----------------------------------------|----------------------------------------|
A#|-----------------7----8----8----8----|-8--------------------------------------|----------------------------------------|
F#|--------------------------------9----|-9-----------------------7----9---------|-------------------------7----9---------|
C#|-9-----------------------------------|-------7--9----7----9--------------9----|-9-----7--9----7----9--------------9----|
G#|-------------------------------------|----------------------------------------|----------------------------------------|
D#|-------0----0------------------------|----------------------------------------|----------------------------------------|

D#|----------------------------------------|----------------------------------------|
A#|----------------------------------------|----------------------------------------|
F#|-------------------------7--------------|---------12---%----12---%----12----12---|
C#|-9-----7--9----7----9---------9----7----|-12-14--------%---------%---------------|
G#|----------------------------------------|----------------------------------------|
D#|----------------------------------------|----------------------------------------|

D#|----------------------------------------|----------------------------------------|
A#|----------------------------------------|---------15--------15--------15---15----|
F#|---------12---%----12---%----12----12---|-14-16--------%---------%---------------|
C#|-12-14--------%---------%---------------|--------------%---------%---------------|
G#|----------------------------------------|----------------------------------------|
D#|----------------------------------------|----------------------------------------|

D#|-----------------------------------------|--------------------|---------------------------------|
A#|-----------------------------------------|--------------------|---------------------------------|
F#|-----------%---------%---------%---------|--------------------|-------------%-------------------|
C#|------5----%----5----%----5----%----7----|-7------7-----------|-------------%-------------------|
G#|------5---------5---------5---------7----|-7------7-----------|---------------------------------|
D#|-0----3---------3---------3---------5----|-5------5------0----|-0-----0----------0----0----3----|

D#|---------------------------------|--------------------------------------------|---------------------------------|
A#|---------------------------------|--------------------------------------------|---------------------------------|
F#|---------------------------------|--------------------------------------------|---------------------------------|
C#|---------------------------------|-5--7----7----7----5----5-------------------|---------------------------------|
G#|-1---------2-----2---------------|-5--7----7----7----5----5-------------------|-1---------2-----2---------------|
D#|------3----0-----0-----0----0----|-3--5----5----5----3----3----0----0----3----|------3----0-----0-----0----0----|

D#|-----------------------------------------|---------------------------------|--------------------------------------------|
A#|-----------------------------------------|---------------------------------|--------------------------------------------|
F#|-----------------------------------------|---------------------------------|--------------------------------------------|
C#|-5----5----5----7----7-------------------|---------------------------------|-5--7----7----7----5----5-------------------|
G#|-5----5----5----7----7-------------------|-1---------2-----2---------------|-5--7----7----7----5----5-------------------|
D#|-3----3----3----5----5----0----0----3----|------3----0-----0-----0----0----|-3--5----5----5----3----3----0----0----3----|

D#|---------------------------------|-----------------------------------------|---------------------------------|
A#|---------------------------------|-----------------------------------------|---------------------------------|
F#|---------------------------------|-----------------------------------------|---------------------------------|
C#|---------------------------------|-5----5----5----7----7-------------------|---------------------------------|
G#|-1---------2-----2---------------|-5----5----5----7----7-------------------|-2-----2-----2----2----2----2----|
D#|------3----0-----0-----0----0----|-3----3----3----5----5----0----0----3----|-0-----0-----0----0----0----0----|

D#|---------------|---------------------------------|-----------------------------------------|
A#|---------------|---------------------------------|-----------------------------------------|
F#|---------------|-4-----4-----4----4----4----4----|-4----5----5----5----4----4----4----5----|
C#|-5-----5-------|-4-----4-----4----4----4----4----|-4----5----5----5----4----4----4----5----|
G#|-5-----5-------|-2-----2-----2----2----2----2----|-2----3----3----3----2----2----2----3----|
D#|-3-----3-------|---------------------------------|-----------------------------------------|

D#|---------------------------------|---------------|---------------------------------|
A#|---------------------------------|---------------|---------------------------------|
F#|---------------------------------|---------------|-4-----4-----4----4----X----X----|
C#|---------------------------------|-5-----5-------|-4-----4-----4----4----X----X----|
G#|-2-----2-----2----2----2----2----|-5-----5-------|-2-----2-----2----2----X----X----|
D#|-0-----0-----0----0----0----0----|-3-----3-------|---------------------------------|

D#|-----------------------------|-------------------------------------|-------------------------------------|
A#|-----------------------------|-------------------------------------|-------------------------------------|
F#|-7-----%-----%-----%----9----|-9------------------------------9----|-9------------------------------9----|
C#|-7-----%-----%-----%----9----|-9---------------4----5----5----9----|-9---------------4----5----5----9----|
G#|-5----------------------7----|-7---------------5----5----5----7----|-7---------------5----5----5----7----|
D#|-----------------------------|-------0----0------------------------|-------0----0------------------------|

D#|-------------------------------------|-----------------------------------------|
A#|-------------------------------------|-----------------------------------------|
F#|-9-----------------------------------|--------------------------7----%----9----|
C#|-9---------------4----5----5----5----|-5----7----7---------7----7----%----9----|
G#|-7---------------5----5----5----5----|-5----7----7---------7----5---------7----|
D#|-------0----0-------------------3----|-3----5----5----0----5-------------------|

D#|-------------------------------------|-------------------------------------|-------------------------------------|
A#|-------------------------------------|-------------------------------------|-------------------------------------|
F#|-9------------------------------9----|-9------------------------------9----|-9-----------------------------------|
C#|-9---------------4----5----5----9----|-9---------------4----5----5----9----|-9---------------4----5----5----5----|
G#|-7---------------5----5----5----7----|-7---------------5----5----5----7----|-7---------------5----5----5----5----|
D#|-------0----0------------------------|-------0----0------------------------|-------0----0-------------------3----|

D#|-----------------------------------------|----------------------------|----------------------------|
A#|-----------------------------------------|----------------------------|----------------------------|
F#|--------------------------7----%----9----|-9------9-------------------|----------------------------|
C#|-5----7----7---------7----7----%----9----|-9------9-------------------|----------------------------|
G#|-5----7----7---------7----5---------7----|-7------7----7----7----6----|-6------2-------------------|
D#|-3----5----5----0----5-------------------|----------------------------|-------------0----0----0----|

D#|------------------------|----------------------------|------------------------|----------------------------|
A#|------------------------|----------------------------|------------------------|----------------------------|
F#|-----------%-----%------|-%------%-------------------|-----------%-----%------|-%------%-------------------|
C#|-----------%-----%------|-%------%-------------------|-----------%-----%------|-%------%-------------------|
G#|-1----2-----------------|----------------------------|-1----2-----------------|----------------------------|
D#|------0-----------------|-------------0----0----3----|------0-----------------|-------------0----0----3----|

D#|------------------------|----------------------------|---------------------------------|
A#|------------------------|----------------------------|---------------------------------|
F#|-----------%-----%------|-%------%-------------------|-----------%-----%-----%---------|
C#|-----------%-----%------|-%------%-------------------|-----------%-----%-----%---------|
G#|-1----2-----------------|----------------------------|-1----2---------------------2----|
D#|------0-----------------|-------------0----0----3----|------0---------------------0----|

D#|----------------------------|---------------------------------|--------------------------------------------|
A#|----------------------------|---------------------------------|--------------------------------------------|
F#|----------------------------|-----------%-----%-----%---------|--------------------------------------------|
C#|----------------------------|-----------%-----%-----%----X----|-5--7----7----7----5----5-------------------|
G#|-2------2-------------------|-1----2---------------------X----|--------------------------------------------|
D#|-0------0----0----0----3----|------0---------------------X----|-3--5----5----5----3----3----0----0----3----|

D#|---------------------------------|-----------------------------------------|---------------------------------|
A#|---------------------------------|-----------------------------------------|---------------------------------|
F#|-----------%-----%-----%---------|-----------------------------------------|---------------------------------|
C#|-----------%-----%-----%----X----|-5----5----5----7----7-------------------|---------------------------------|
G#|-1----2---------------------X----|-----------------------------------------|-1---------2-----2---------------|
D#|------0---------------------X----|-3----3----3----5----5----0----0----3----|------3----0-----0-----0----0----|

D#|--------------------------------------------|---------------------------------|-----------------------------------------|
A#|--------------------------------------------|---------------------------------|-----------------------------------------|
F#|--------------------------------------------|---------------------------------|-----------------------------------------|
C#|-5--7----7----7----5----5-------------------|---------------------------------|-5----5----5----7----7-------------------|
G#|--------------------------------------------|-1---------2-----2---------------|--------------------------0----3----0----|
D#|-3--5----5----5----3----3----0----0----3----|------3----0-----0-----0----0----|-3----3----3----5----5-------------------|

D#|-------------------------------------|-----------------------------------------|
A#|-------------------------------------|-----------------------------------------|
F#|-7----7----7----8--------------5-----|-5---------------------------------------|
C#|-7----7----7----8---------0----5-----|-5----0----0----0----0-------------------|
G#|-5----5----5----6----0----0----3-----|-3----0----0----0----0----0----3----0----|
D#|-------------------------------------|-----------------------------------------|

D#|-------------------------------------|-----------------------------------------|
A#|-------------------------------------|-----------------------------------------|
F#|-7----7----7----8--------------5-----|-5---------------------------------------|
C#|-7----7----7----8---------0----5-----|-5----0----0----0----0-------------------|
G#|-5----5----5----6----0----0----3-----|-3----0----0----0----0----0----3----0----|
D#|-------------------------------------|-----------------------------------------|

D#|-------------------------------------|-----------------------------------------|
A#|-------------------------------------|-----------------------------------------|
F#|-7----7----7----8--------------5-----|-----------%---------%---------%---------|
C#|-7----7----7----8--------------5-----|------5----%----5----%----5----%----5----|
G#|-5----5----5----6----0----0----3-----|------5---------5---------5---------5----|
D#|-------------------------------------|-0----3---------3---------3---------3----|

D#|-------------------------------------|-----------------------------------------|
A#|-------------------------------------|-----------------------------------------|
F#|-------------------------------------|-----------------------------------------|
C#|-7----7----7----8--------------5-----|-5-----------------------------5---------|
G#|-7----7----7----8--------------5-----|-5-----------------------------5---------|
D#|-5----5----5----6----0----0----3-----|-3----0----0----0----0----0----3----0----|

D#|-------------------------------------|-----------------------------------------|
A#|-------------------------------------|-----------------------------------------|
F#|-------------------------------------|-----------------------------------------|
C#|-7----7----7----8--------------5-----|-5-----------------------------5---------|
G#|-7----7----7----8--------------5-----|-5-----------------------------5---------|
D#|-5----5----5----6----0----0----3-----|-3----0----0----0----0----0----3----0----|

D#|-------------------------------------|-----------------------------------------|
A#|-------------------------------------|-----------------------------------------|
F#|-------------------------------------|-----------------------------------------|
C#|-7----7----7----8--------------5-----|-5-----------------------------5---------|
G#|-7----7----7----8--------------5-----|-5-----------------------------5---------|
D#|-5----5----5----6----0----0----3-----|-3----0----0----0----0----0----3----0----|

D#|-------------------------------------|-----------------------------------------|
A#|-------------------------------------|-----------------------------------------|
F#|-------------------------------------|-----------%---------%---------%---------|
C#|-7----7----7----8--------------5-----|------5----%----5----%----5----%----5----|
G#|-7----7----7----8--------------5-----|------5---------5---------5---------5----|
D#|-5----5----5----6----0----0----3-----|-0----3---------3---------3---------3----|

D#|-------------------------------------|-----------------------------------------|
A#|-------------------------------------|-----------------------------------------|
F#|-------------------------------------|-----------------------------------------|
C#|-7----7----7----8--------------5-----|-5-----------------------------5---------|
G#|-7----7----7----8--------------5-----|-5-----------------------------5---------|
D#|-5----5----5----6----0----0----3-----|-3----0----0----0----0----0----3----0----|

D#|-------------------------------------|-----------------------------------------|
A#|-------------------------------------|-----------------------------------------|
F#|-------------------------------------|-----------------------------------------|
C#|-7----7----7----8--------------5-----|-5-----------------------------5---------|
G#|-7----7----7----8--------------5-----|-5-----------------------------5---------|
D#|-5----5----5----6----0----0----3-----|-3----0----0----0----0----0----3----0----|

D#|-------------------------------------|-----------------------------------------|
A#|-------------------------------------|-----------------------------------------|
F#|-------------------------------------|-----------------------------------------|
C#|-7----7----7----8--------------5-----|-5-----------------------------5---------|
G#|-7----7----7----8--------------5-----|-5-----------------------------5---------|
D#|-5----5----5----6----0----0----3-----|-3----0----0----0----0----0----3----0----|

D#|-------------------------------------|-----------------------------------------|
A#|-------------------------------------|-----------------------------------------|
F#|-------------------------------------|-----------%---------%---------%---------|
C#|-7----7----7----8--------------5-----|------5----%----5----%----5----%----7----|
G#|-7----7----7----8--------------5-----|------5---------5---------5---------7----|
D#|-5----5----5----6----0----0----3-----|-0----3---------3---------3---------5----|

D#|-------------------------|-------------------------------------|---------------------------------|
A#|-------------------------|-------------------------------------|---------------------------------|
F#|-------------------------|--------------------------------7----|-7-----7----5----7----5----------|
C#|-7-------5--3----5--7----|-7-----7----5----7----5--------------|---------------------------7-----|
G#|-7-----------------------|---------------------------7---------|---------------------------------|
D#|-5-----------------------|-------------------------------------|---------------------------------|

D#|----------------------------------------|----------------------------------------|
A#|----------------------------------------|----------------------------------------|
F#|--------------%---------%---------------|---------7----%----7----%----7-----7----|
C#|---------5----%----5----%----5-----5----|-7--9---------%---------%---------------|
G#|-5--7-----------------------------------|----------------------------------------|
D#|----------------------------------------|----------------------------------------|

D#|---------------------------------|-------------------|--------------------|
A#|---------------------------------|-------------------|--------------------|
F#|-----------%---------%-----------|-------------------|-------%-----%------|
C#|------5----%----5----%----5------|---------2----2----|-2-----%-----%------|
G#|------5---------5---------5------|-2-------2----2----|-2------------------|
D#|-0----3---------3---------3------|-0-------0----0----|--------------------|
Metallica - Attitude
Metallica - Attitude.gp3