Metallica - Bad Seed

Metallica - Bad Seed

Metallica



Title: Bad Seed
Album: 
Artist: 
Author: Metallica

Track 1: Guitar I
C#|---------|---------|------------------------|--------------------------------------------|
G#|---------|---------|------------------------|--------------------------------------------|
 E|-%-------|-%-------|-%------%---------------|--------------------------------------------|
 B|-%-------|-%-------|-%------%---------------|--------------------------------------------|
F#|---------|---------|-------------X----X-----|-5--7----5-----------------------------7----|
C#|---------|---------|-------------X----X-----|--------------7----5----3----0----0---------|

C#|-------------------------------------|--------------------------------------------|
G#|-------------------------------------|--------------------------------------------|
 E|-------------------------------------|--------------------------------------------|
 B|-------------------------------------|--------------------------------------------|
F#|-7----5------------------------5-----|-5--7----5-----------------------------7----|
C#|-----------7----5----3----0----3-----|--------------7----5----3----0----0---------|

C#|-------------------------------------|--------------------------------------------|
G#|-------------------------------------|--------------------------------------------|
 E|-------------------------------------|--------------------------------------------|
 B|--------------------------7----5-----|--------------------------------------------|
F#|-7----5-------------------7----5-----|-5--7----5-----------------------------7----|
C#|-----------7----5----3---------------|--------------7----5----3----0----0---------|

C#|-------------------------------------|--------------------------------------------|
G#|-------------------------------------|--------------------------------------------|
 E|-------------------------------------|--------------------------------------------|
 B|-------------------------------------|--------------------------------------------|
F#|-7----5------------------------5-----|-5--7----5-----------------------------7----|
C#|-----------7----5----3----0----3-----|--------------7----5----3----0----0---------|

C#|-------------------------------------|-----------------------------------------|
G#|-------------------------------------|-----------------------------------------|
 E|-------------------------------------|-----------%---------%---------%---------|
 B|--------------------------7----5-----|-----------%---------%---------%---------|
F#|-7----5-------------------7----5-----|-2----2---------2---------2---------2----|
C#|-----------7----5----3---------------|-0----0---------0---------0---------0----|

C#|-----------------------------------------|-----------------------------------------|
G#|-----------------------------------------|-----------------------------------------|
 E|-%---------%-----------------------------|-----------%---------%---------%---------|
 B|-%---------%-----------------------------|-----------%---------%---------%---------|
F#|------2----------------------------------|------2---------2---------2---------2----|
C#|------0---------0----5----0----3----5----|-3----0---------0---------0---------0----|

C#|-------------------------------------|-----------------------------------------|
G#|-------------------------------------|-----------------------------------------|
 E|-%---------%-------------------------|-----------%---------%---------%---------|
 B|-%---------%-------------------------|-----------%---------%---------%---------|
F#|------2------------------------------|------2---------2---------2---------2----|
C#|------0---------0----5-----3----5----|-3----0---------0---------0---------0----|

C#|-------------------------------------|-----------------------------------------|
G#|-------------------------------------|-----------------------------------------|
 E|-%---------%-------------------------|-----------%---------%---------%---------|
 B|-%---------%-------------------------|-----------%---------%---------%---------|
F#|------2------------------------------|------2---------2---------2---------2----|
C#|------0---------0----5-----3----5----|-3----0---------0---------0---------0----|

C#|-------------------------------------|-----------------------------------------|
G#|-------------------------------------|-----------------------------------------|
 E|-%---------%-------------------------|-----------%---------%---------%---------|
 B|-%---------%-------------------------|-----------%---------%---------%---------|
F#|------2------------------------------|-5----5---------5---------5--------------|
C#|------0---------0----5-----3----5----|-3----3---------3---------3---------5----|

C#|---------------------------------|-----------------------------------------|-----------------------------------------|
G#|---------------------------------|-----------------------------------------|-----------------------------------------|
 E|---------------------------------|-----------%---------%-------------------|-%---------%---------%-------------------|
 B|---------------------------------|-----------%---------%----7----5---------|-%---------%---------%----7----5---------|
F#|------7--------------------------|------2---------2---------7----5----2----|------2---------2---------7----5----2----|
C#|-5----------6-----6----5----0----|-3----0---------0-------------------0----|------0---------0-------------------0----|

C#|-----------------------------------------|-------------------------------------|
G#|-----------------------------------------|-------------------------------------|
 E|-%---------%---------%-------------------|-%---------%-------------------------|
 B|-%---------%---------%----7----5---------|-%---------%---------5----7----5-----|
F#|------2---------2---------7----5----2----|------2---------7--------------------|
C#|------0---------0-------------------0----|------0------------------------------|

C#|-----------------------------------------|-----------------------------------------|
G#|-----------------------------------------|-----------------------------------------|
 E|-%---------%---------%-------------------|-%---------%---------%-------------------|
 B|-%---------%---------%----7----5---------|-%---------%---------%----7----5---------|
F#|------2---------2---------7----5----2----|------2---------2---------7----5----2----|
C#|------0---------0-------------------0----|------0---------0-------------------0----|

C#|-----------------------------------------|-----------------------------------------|
G#|-----------------------------------------|-----------------------------------------|
 E|-%---------%---------%-------------------|-%---------%-----------------------------|
 B|-%---------%---------%----7----5---------|-%---------%---------5----7----5---------|
F#|------2---------2---------7----5----2----|------2---------7-------------------7----|
C#|------0---------0-------------------0----|------0----------------------------------|

C#|--------------------------------------------|-------------------------------------|
G#|--------------------------------------------|-------------------------------------|
 E|--------------------------------------------|-------------------------------5-----|
 B|-5--7----5-----------------------------7----|-7----5------------------------5-----|
F#|--------------7----5----3----0----0---------|-----------7----5----3----0----------|
C#|--------------------------------------------|-------------------------------------|

C#|--------------------------------------------|-------------------------------------|
G#|--------------------------------------------|-------------------------------------|
 E|--------------------------------------------|--------------------------7----5-----|
 B|-5--7----5-----------------------------7----|-7----5-------------------7----5-----|
F#|--------------7----5----3----0----0---------|-----------7----5----3---------------|
C#|--------------------------------------------|-------------------------------------|

C#|-----------------------------------------|---------------------------------|-----------------------------------------|
G#|-----------------------------------------|---------------------------------|-----------------------------------------|
 E|-----------%---------%-------------------|---------------------------------|-----------%---------%-------------------|
 B|-----------%---------%-------------------|---------------------------------|-----------%---------%-------------------|
F#|-5----5---------5---------5---------2----|-2-----2-------------------------|-5----5---------5---------5---------2----|
C#|-3----3---------3---------3----0----0----|-0-----0----0----5-----3----5----|-3----3---------3---------3----0----0----|

C#|----------------------------------------|-----------------------------------------|
G#|----------------------------------------|-----------------------------------------|
 E|----------------------------------------|-----------%---------%-------------------|
 B|----------------------------------------|-----------%---------%-------------------|
F#|-2-----2--------------------------------|-5----5---------5---------5---------7----|
C#|-0-----0----0----5----5---0---3----5----|-3----3---------3---------3----0----5----|

C#|-----------------------------|-----------------------------------------|-------------------------------------|
G#|-----------------------------|-----------------------------------------|-------------------------------------|
 E|-----------------------------|-----------%---------%---------%---------|-%---------%-------------------------|
 B|-----------------------------|-----------%---------%---------%---------|-%---------%-------------------------|
F#|-7---------------------------|------2---------2---------2---------2----|------2------------------------------|
C#|-5------6-----6----5----0----|-3----0---------0---------0---------0----|------0---------0----5-----3----5----|

C#|-----------------------------------------|-------------------------------------|
G#|-----------------------------------------|-------------------------------------|
 E|-----------%---------%---------%---------|-%---------%-------------------------|
 B|-----------%---------%---------%---------|-%---------%-------------------------|
F#|------2---------2---------2---------2----|------2------------------------------|
C#|-3----0---------0---------0---------0----|------0---------0----5-----3----5----|

C#|-----------------------------------------|-------------------------------------|
G#|-----------------------------------------|-------------------------------------|
 E|-----------%---------%---------%---------|-%---------%-------------------------|
 B|-----------%---------%---------%---------|-%---------%-------------------------|
F#|------2---------2---------2---------2----|------2------------------------------|
C#|-3----0---------0---------0---------0----|------0---------0----5-----3----5----|

C#|-----------------------------------------|---------------------------------|-----------------------------------------|
G#|-----------------------------------------|---------------------------------|-----------------------------------------|
 E|-----------%---------%---------%---------|---------------------------------|-----------%---------%-------------------|
 B|-----------%---------%---------%---------|---------------------------------|-----------%---------%----7----5---------|
F#|-5----5---------5---------5--------------|------7--------------------------|------2---------2---------7----5----2----|
C#|-3----3---------3---------3---------5----|-5----------6-----6----5----0----|-3----0---------0-------------------0----|

C#|-----------------------------------------|-----------------------------------------|
G#|-----------------------------------------|-----------------------------------------|
 E|-%---------%---------%-------------------|-%---------%---------%-------------------|
 B|-%---------%---------%----7----5---------|-%---------%---------%----7----5---------|
F#|------2---------2---------7----5----2----|------2---------2---------7----5----2----|
C#|------0---------0-------------------0----|------0---------0-------------------0----|

C#|-------------------------------------|-----------------------------------------|
G#|-------------------------------------|-----------------------------------------|
 E|-%---------%-------------------------|-%---------%---------%-------------------|
 B|-%---------%---------5----7----5-----|-%---------%---------%----7----5---------|
F#|------2---------7--------------------|------2---------2---------7----5----2----|
C#|------0------------------------------|------0---------0-------------------0----|

C#|-----------------------------------------|-----------------------------------------|
G#|-----------------------------------------|-----------------------------------------|
 E|-%---------%---------%-------------------|-%---------%---------%-------------------|
 B|-%---------%---------%----7----5---------|-%---------%---------%----7----5---------|
F#|------2---------2---------7----5----2----|------2---------2---------7----5----2----|
C#|------0---------0-------------------0----|------0---------0-------------------0----|

C#|-----------------------------------------|--------------------------------------------|
G#|-----------------------------------------|--------------------------------------------|
 E|-%---------%-----------------------------|--------------------------------------------|
 B|-%---------%---------5----7----5---------|-5--7----5-----------------------------7----|
F#|------2---------7-------------------7----|--------------7----5----3----0----0---------|
C#|------0----------------------------------|--------------------------------------------|

C#|-------------------------------------|--------------------------------------------|
G#|-------------------------------------|--------------------------------------------|
 E|-------------------------------5-----|--------------------------------------------|
 B|-7----5------------------------5-----|-5--7----5-----------------------------7----|
F#|-----------7----5----3----0----------|--------------7----5----3----0----0---------|
C#|-------------------------------------|--------------------------------------------|

C#|-------------------------------------|-----------------------------------------|
G#|-------------------------------------|-----------------------------------------|
 E|-------------------------------5-----|-----------%---------%-------------------|
 B|-7----5------------------------5-----|-----------%---------%-------------------|
F#|-----------7----5----3----0----------|-5----5---------5---------5---------2----|
C#|-------------------------------------|-3----3---------3---------3----0----0----|

C#|---------------------------------|-----------------------------------------|----------------------------------------|
G#|---------------------------------|-----------------------------------------|----------------------------------------|
 E|---------------------------------|-----------%---------%-------------------|----------------------------------------|
 B|---------------------------------|-----------%---------%-------------------|----------------------------------------|
F#|-2-----2-------------------------|-5----5---------5---------5---------2----|-2-----2--------------------------------|
C#|-0-----0----0----5-----3----5----|-3----3---------3---------3----0----0----|-0-----0----0----5----5---0---3----5----|

C#|-----------------------------------------|-----------------------------|-----------------------------------------|
G#|-----------------------------------------|-----------------------------|-----------------------------------------|
 E|-----------%---------%-------------------|-----------------------------|-----------%---------%---------%---------|
 B|-----------%---------%-------------------|-----------------------------|-----------%---------%---------%---------|
F#|-5----5---------5---------5---------7----|-7---------------------------|-5----2---------2---------2---------5----|
C#|-3----3---------3---------3----0----5----|-5------6-----6----5----0----|-3----0---------0---------0---------3----|

C#|-----------------------------------------|-----------------------------------------|
G#|-----------------------------------------|-----------------------------------------|
 E|-%---------%---------%---------%---------|-%---------%---------%---------%---------|
 B|-%---------%---------%---------%---------|-%---------%---------%---------%---------|
F#|------5---------5---------5---------7----|------7---------7---------7---------8----|
C#|------3---------3---------3---------5----|------5---------5---------5---------6----|

C#|-----------------------------------------|-----------------------------------------|
G#|-----------------------------------------|-----------------------------------------|
 E|-%---------%---------%-------------------|-----------%---------%---------%---------|
 B|-%---------%---------%-------------------|-----------%---------%---------%---------|
F#|------8---------7---------2----5----2----|-5----2---------2---------2---------5----|
C#|------6---------5---------0----3----0----|-3----0---------0---------0---------3----|

C#|-----------------------------------------|-----------------------------------------|
G#|-----------------------------------------|-----------------------------------------|
 E|-%---------%---------%---------%---------|-%---------%---------%---------%---------|
 B|-%---------%---------%---------%---------|-%---------%---------%---------%---------|
F#|------5---------5---------5---------7----|------7---------7---------7---------8----|
C#|------3---------3---------3---------5----|------5---------5---------5---------6----|

C#|-----------------------------------------|-----------------------------------------|
G#|-----------------------------------------|-----------------------------------------|
 E|-%---------%---------%-------------------|-----------%---------%---------%---------|
 B|-%---------%---------%-------------------|-----------%---------%---------%---------|
F#|------8---------7---------2----5----2----|-5----2---------2---------2---------2----|
C#|------6---------5---------0----3----0----|-3----0---------0---------0---------0----|

C#|-------------------------------------|--------------------------------------------|
G#|-------------------------------------|--------------------------------------------|
 E|-%---------%--------------%----%-----|--------------------------------------------|
 B|-%---------%--------------%----%-----|--------------------------------------------|
F#|------2---------2----2---------------|-5--7----5-----------------------------7----|
C#|------0---------0----0---------------|--------------7----5----3----0----0---------|

C#|-------------------------------------|--------------------------------------------|
G#|-------------------------------------|--------------------------------------------|
 E|-------------------------------------|--------------------------------------------|
 B|-------------------------------------|--------------------------------------------|
F#|-7----5------------------------5-----|-5--7----5-----------------------------7----|
C#|-----------7----5----3----0----3-----|--------------7----5----3----0----0---------|

C#|-------------------------------------|--------------------------------------------|
G#|-------------------------------------|--------------------------------------------|
 E|-------------------------------------|--------------------------------------------|
 B|--------------------------7----5-----|--------------------------------------------|
F#|-7----5-------------------7----5-----|-5--7----5-----------------------------7----|
C#|-----------7----5----3---------------|--------------7----5----3----0----0---------|

C#|-------------------------------------|--------------------------------------------|
G#|-------------------------------------|--------------------------------------------|
 E|-------------------------------------|--------------------------------------------|
 B|-------------------------------------|--------------------------------------------|
F#|-7----5------------------------5-----|-5--7----5-----------------------------7----|
C#|-----------7----5----3----0----3-----|--------------7----5----3----0----0---------|

C#|-------------------------------------|--------------------------------------------|
G#|-------------------------------------|--------------------------------------------|
 E|-------------------------------------|--------------------------------------------|
 B|--------------------------7----5-----|-5--7----5-----------------------------7----|
F#|-7----5-------------------7----5-----|--------------7----5----3----0----0---------|
C#|-----------7----5----3---------------|--------------------------------------------|

C#|-------------------------------------|--------------------------------------------|
G#|-------------------------------------|--------------------------------------------|
 E|-------------------------------5-----|--------------------------------------------|
 B|-7----5------------------------5-----|-5--7----5-----------------------------7----|
F#|-----------7----5----3----0----------|--------------7----5----3----0----0---------|
C#|-------------------------------------|--------------------------------------------|

C#|-------------------------------------|--------------------------------------------|
G#|-------------------------------------|--------------------------------------------|
 E|-------------------------------5-----|--------------------------------------------|
 B|-7----5------------------------5-----|-5--7----5-----------------------------7----|
F#|-----------7----5----3----0----------|--------------7----5----3----0----0---------|
C#|-------------------------------------|--------------------------------------------|

C#|-------------------------------------|--------------------------------------------|
G#|-------------------------------------|--------------------------------------------|
 E|-------------------------------5-----|--------------------------------------------|
 B|-7----5------------------------5-----|-5--7----5-----------------------------7----|
F#|-----------7----5----3----0----------|--------------7----5----3----0----0---------|
C#|-------------------------------------|--------------------------------------------|

C#|-------------------------------------|-------------------------------------|-------------------------------------|
G#|-------------------------------------|-------------------------------------|-------------------------------------|
 E|-------------------------------5-----|-----------5----7----7---------------|-----------5----7----7----7----5-----|
 B|-7----5------------------------5-----|-7----7-------------------7-----7----|-7----7------------------------------|
F#|-----------7----5----3----0----------|-------------------------------------|-------------------------------------|
C#|-------------------------------------|-------------------------------------|-------------------------------------|

C#|-------------------------------------|----------------------------------------|-------------------------------------|
G#|-------------------------------------|-----------------------------8----8-----|-------------------------------------|
 E|-----------5----7----7---------------|-----------5----7----7---9--------------|-----------5----7----7---------------|
 B|-7----7-------------------7-----7----|-7----7---------------------------------|-7----7-------------------7-----7----|
F#|-------------------------------------|----------------------------------------|-------------------------------------|
C#|-------------------------------------|----------------------------------------|-------------------------------------|

C#|-------------------------------------|-------------------------------------|----------------------------------------|
G#|-------------------------------------|-------------------------------------|-----------------------------8----8-----|
 E|-----------5----7----7----7----5-----|-----------5----7----7---------------|-----------5----7----7---9--------------|
 B|-7----7------------------------------|-7----7-------------------7-----7----|-7----7---------------------------------|
F#|-------------------------------------|-------------------------------------|----------------------------------------|
C#|-------------------------------------|-------------------------------------|----------------------------------------|

C#|---------------------------------|-----------------------------------------|-----------------------------------------|
G#|------8----8----------8----8-----|------8---------8---------8---------8----|-----------------------------------------|
 E|-9---------------9---------------|-9---------9---------9---------9---------|-----------%---------%-------------------|
 B|---------------------------------|-----------------------------------------|-----------%---------%-------------------|
F#|---------------------------------|-----------------------------------------|-5----5---------5---------5---------2----|
C#|---------------------------------|-----------------------------------------|-3----3---------3---------3----0----0----|

C#|---------------------------------|-----------------------------------------|----------------------------------------|
G#|---------------------------------|-----------------------------------------|----------------------------------------|
 E|---------------------------------|-----------%---------%-------------------|----------------------------------------|
 B|---------------------------------|-----------%---------%-------------------|----------------------------------------|
F#|-2-----2-------------------------|-5----5---------5---------5---------2----|-2-----2--------------------------------|
C#|-0-----0----0----5-----3----5----|-3----3---------3---------3----0----0----|-0-----0----0----5----5---0---3----5----|

C#|-----------------------------------------|-----------------------------|-----------------------------------------|
G#|-----------------------------------------|-----------------------------|-----------------------------------------|
 E|-----------%---------%-------------------|-----------------------------|-----------%---------%---------%---------|
 B|-----------%---------%-------------------|-----------------------------|-----------%---------%---------%---------|
F#|-5----5---------5---------5---------7----|-7---------------------------|-5----2---------2---------2---------5----|
C#|-3----3---------3---------3----0----5----|-5------6-----6----5----0----|-3----0---------0---------0---------3----|

C#|-----------------------------------------|-----------------------------------------|
G#|-----------------------------------------|-----------------------------------------|
 E|-%---------%---------%---------%---------|-%---------%---------%---------%---------|
 B|-%---------%---------%---------%---------|-%---------%---------%---------%---------|
F#|------5---------5---------5---------7----|------7---------7---------7---------8----|
C#|------3---------3---------3---------5----|------5---------5---------5---------6----|

C#|-----------------------------------------|-----------------------------------------|
G#|-----------------------------------------|-----------------------------------------|
 E|-%---------%---------%-------------------|-----------%---------%---------%---------|
 B|-%---------%---------%-------------------|-----------%---------%---------%---------|
F#|------8---------7---------2----5----2----|-5----2---------2---------2---------5----|
C#|------6---------5---------0----3----0----|-3----0---------0---------0---------3----|

C#|-----------------------------------------|-----------------------------------------|
G#|-----------------------------------------|-----------------------------------------|
 E|-%---------%---------%---------%---------|-%---------%---------%---------%---------|
 B|-%---------%---------%---------%---------|-%---------%---------%---------%---------|
F#|------5---------5---------5---------7----|------7---------7---------7---------8----|
C#|------3---------3---------3---------5----|------5---------5---------5---------6----|

C#|-----------------------------------------|-------------------------------------|
G#|-----------------------------------------|-------------------------------------|
 E|-%---------%---------%-------------------|-----------%---------------%---------|
 B|-%---------%---------%-------------------|-----------%---------------%---------|
F#|------8---------7---------2----5----2----|-5----2---------2-----2---------2----|
C#|------6---------5---------0----3----0----|-3----0---------0-----0---------0----|

C#|-----------------------------------------|-----------------------------------------|
G#|-----------------------------------------|-----------------------------------------|
 E|-----------%-----------------------------|-----------%---------%---------%---------|
 B|-----------%-----------------------------|-----------%---------%---------%---------|
F#|-2----2---------2----5----7----5----7----|------2---------2---------2---------2----|
C#|-0----0---------0----3----5----3----5----|-3----0---------0---------0---------0----|

C#|-------------------------------------|-----------------------------------------|
G#|-------------------------------------|-----------------------------------------|
 E|-%---------%-------------------------|-----------%---------%---------%---------|
 B|-%---------%-------------------------|-----------%---------%---------%---------|
F#|------2------------------------------|------2---------2---------2---------2----|
C#|------0---------0----5-----3----5----|-3----0---------0---------0---------0----|

C#|-----------------------------------------|--------------------|---------|
G#|-----------------------------------------|--------------------|---------|
 E|-%---------%-----------------------------|-------------%------|-%-------|
 B|-%---------%-----------------------------|-------------%------|-%-------|
F#|------2----------------------------------|-2------0-----------|---------|
C#|------0---------0----5----0----3----5----|-0------0-----------|---------|
Metallica - Bad Seed
Metallica - Bad Seed.gp3