Metallica - Bass & Guitar Doodle (Cunning Stunts)

Metallica - Bass & Guitar Doodle (Cunning Stunts)

Metallica



Title: Bass & Guitar Doodle
Album: DVD Cunning Stunts
Artist: Metallica
Author: Newsted/Hammett

Track 1: Electric Guitar (Kirk Hammett)
D#|---------|---------|---------|---------|---------|---------|---------|---------|
A#|---------|---------|---------|---------|---------|---------|---------|---------|
F#|-%-------|-%-------|-%-------|-%-------|-%-------|-%-------|-%-------|-%-------|
C#|-%-------|-%-------|-%-------|-%-------|-%-------|-%-------|-%-------|-%-------|
G#|---------|---------|---------|---------|---------|---------|---------|---------|
D#|---------|---------|---------|---------|---------|---------|---------|---------|

D#|---------|---------|---------|---------|---------|---------|---------|---------|
A#|---------|---------|---------|---------|---------|---------|---------|---------|
F#|-%-------|-%-------|-%-------|-%-------|-%-------|-%-------|-%-------|-%-------|
C#|-%-------|-%-------|-%-------|-%-------|-%-------|-%-------|-%-------|-%-------|
G#|---------|---------|---------|---------|---------|---------|---------|---------|
D#|---------|---------|---------|---------|---------|---------|---------|---------|

D#|---------|---------|---------|---------|---------|---------|---------|---------|
A#|---------|---------|---------|---------|---------|---------|---------|---------|
F#|-%-------|-%-------|-%-------|-%-------|-%-------|-%-------|-%-------|-%-------|
C#|-%-------|-%-------|-%-------|-%-------|-%-------|-%-------|-%-------|-%-------|
G#|---------|---------|---------|---------|---------|---------|---------|---------|
D#|---------|---------|---------|---------|---------|---------|---------|---------|

D#|---------|---------|---------|---------|---------|---------|---------|---------|
A#|---------|---------|---------|---------|---------|---------|---------|---------|
F#|-%-------|-%-------|-%-------|-%-------|-%-------|-%-------|-%-------|-%-------|
C#|-%-------|-%-------|-%-------|-%-------|-%-------|-%-------|-%-------|-%-------|
G#|---------|---------|---------|---------|---------|---------|---------|---------|
D#|---------|---------|---------|---------|---------|---------|---------|---------|

D#|---------|---------|---------|---------|---------|---------|---------|---------|
A#|---------|---------|---------|---------|---------|---------|---------|---------|
F#|-%-------|-%-------|-%-------|-%-------|-%-------|-%-------|-%-------|-%-------|
C#|-%-------|-%-------|-%-------|-%-------|-%-------|-%-------|-%-------|-%-------|
G#|---------|---------|---------|---------|---------|---------|---------|---------|
D#|---------|---------|---------|---------|---------|---------|---------|---------|

D#|---------|---------|---------|---------------------|---------|---------------------|
A#|---------|---------|---------|---------------------|---------|---------------------|
F#|-%-------|-%-------|---------|---------------9-----|---------|-9-------------------|
C#|-%-------|-%-------|---------|--------10-----------|---------|--------12-----10----|
G#|---------|---------|-12------|-12------------------|-12------|---------------------|
D#|---------|---------|---------|---------------------|---------|---------------------|

D#|---------|---------------------|---------|---------------------|---------|---------------------|
A#|---------|---------------------|---------|---------------------|---------|---------------------|
F#|---------|---------------9-----|---------|-9-------------------|---------|-14-----14-----------|
C#|-12------|--------10-----------|---------|--------12-----10----|-12------|---------------14----|
G#|---------|-12------------------|-12------|---------------------|---------|---------------------|
D#|---------|---------------------|---------|---------------------|---------|---------------------|

D#|---------|---------------------|---------|---------------------|-------------------|
A#|---------|---------------------|---------|---------------------|-------------------|
F#|---------|-14-----14-----------|---------|---------------9-----|-------------------|
C#|-10------|---------------10----|-12------|--------10-----------|-------------------|
G#|---------|---------------------|---------|-12------------------|-12------14---10---|
D#|---------|---------------------|---------|---------------------|-------------------|

D#|---------------|-------------------|------------------------|--------------------|
A#|---------------|-------------------|------------------------|--------------------|
F#|---------%-----|-------------------|--------7-----5-----%---|--------------------|
C#|---------%-----|-------------------|--------7-----5-----%---|--------------------|
G#|-10------------|---------2----3----|-3----------------------|--------2------3----|
D#|---------------|-3------------5----|-5----------------------|-3-------------5----|

D#|-----------8--5--8--5--8--5--8--5--8--5--8--5--8------|--------------------|--------12-----|
A#|--------5---------------------------------------------|--------------------|--------12-----|
F#|--------------------------------------------------%---|--------------------|--------12-----|
C#|--------------------------------------------------%---|--------------------|---------------|
G#|-3----------------------------------------------------|--------2------3----|-3-------------|
D#|-5----------------------------------------------------|-3-------------5----|-5-------------|

D#|---------------|--------------------|-----------------------------|---------|---------|
A#|---------------|--------------------|-----------------------------|---------|---------|
F#|---------------|--------------------|-----------------------------|---------|---------|
C#|---------------|--------------------|-------6-----7-----7----9----|-9-------|-9-------|
G#|--------2------|--------------2-----|-7---------------------------|---------|---------|
D#|-3-------------|-0------4-----------|-----------------------------|---------|---------|

D#|---------12----|--------------3----3--5--3--2----|---------12----|--------------2----2---3---0---0----|
A#|---------------|-12-----12----0----0-------------|---------------|-12-----12----0----0----------------|
F#|---------------|---------------------------------|---------------|------------------------------------|
C#|---------------|---------------------------------|---------------|------------------------------------|
G#|---------------|---------------------------------|---------------|------------------------------------|
D#|-0-------------|---------------------------------|-0-------------|------------------------------------|

D#|--------12----------|--------12----------|--------7-----------|------------12--12--12--------------|
A#|-------------12-----|-------------12-----|-------------7------|-------------------------12---------|
F#|--------------------|--------------------|--------------------|------------------------------12----|
C#|--------------------|--------------------|--------------------|------------------------------------|
G#|--------------------|--------------------|--------------------|------------------------------------|
D#|-0------------------|-0------------------|-0------------------|-0------0---------------------------|

D#|-----------------------------------------|-----------------------------------------------|
A#|-----------------------------------------|-----------------------------------------------|
F#|----------------0-------------------0----|----------------0------------------------------|
C#|-----------4-------------------5---------|-----------7----------------------0------------|
G#|------2-------------------3--------------|------5----------------------4-----------------|
D#|-0-------------------0-------------------|-0-------------------0--5--------------5--3----|

D#|------------------------|-----------------------------------------|-----------------------------------------------|
A#|------------------------|-----------------------------------------|-----------------------------------------------|
F#|------------------------|----------------0-------------------0----|----------------0------------------------------|
C#|------0-----------------|-----------4-------------------5---------|-----------7----------------------0------------|
G#|-2-----------------5----|------2-------------------3--------------|------5----------------------4-----------------|
D#|-----------3--5---------|-0-------------------0-------------------|-0-------------------0--5--------------5--3----|

D#|------------------------|-----------------------------------------|-----------------------------------------------|
A#|------------------------|-----------------------------------------|-----------------------------------------------|
F#|------------------------|----------------0-------------------0----|----------------0------------------------------|
C#|------0-----------------|-----------4-------------------5---------|-----------7----------------------0------------|
G#|-2-----------------5----|------2-------------------3--------------|------5----------------------4-----------------|
D#|-----------3--5---------|-0-------------------0-------------------|-0-------------------0--5--------------5--3----|

D#|------------------------|-----------------------------------------|-----------------------------------------------|
A#|------------------------|-----------------------------------------|-----------------------------------------------|
F#|------------------------|----------------0-------------------0----|----------------0------------------------------|
C#|------0-----------------|-----------4-------------------5---------|-----------7----------------------0------------|
G#|-2-----------------5----|------2-------------------3--------------|------5----------------------4-----------------|
D#|-----------3--5---------|-0-------------------0-------------------|-0-------------------0--5--------------5--3----|

D#|------------------------|-----------------------------------------|-----------------------------------------------|
A#|------------------------|-----------------------------------------|-----------------------------------------------|
F#|------------------------|----------------0-------------------0----|----------------0------------------------------|
C#|------0-----------------|-----------4-------------------5---------|-----------7----------------------0------------|
G#|-2-----------------5----|------2-------------------3--------------|------5----------------------4-----------------|
D#|-----------3--5---------|-0-------------------0-------------------|-0-------------------0--5--------------5--3----|

D#|------------------------|-----------------------------------------|-----------------------------------------------|
A#|------------------------|-----------------------------------------|-----------------------------------------------|
F#|------------------------|----------------0-------------------0----|----------------0------------------------------|
C#|------0-----------------|-----------4-------------------5---------|-----------7----------------------0------------|
G#|-2-----------------5----|------2-------------------3--------------|------5----------------------4-----------------|
D#|-----------3--5---------|-0-------------------0-------------------|-0-------------------0--5--------------5--3----|

D#|------------------------|--------0--------------|----------------0--------------|
A#|------------------------|-------------0---------|-----------0---------0---------|
F#|------------------------|------------------0----|------0-------------------0----|
C#|------0-----------------|-----------------------|-------------------------------|
G#|-2-----------------5----|-----------------------|-------------------------------|
D#|-----------3--5---------|-0---------------------|-0-----------------------------|

D#|----------------0--------------|----------------0---------7----|-7--------------7---0-------------|
A#|-----------0---------0---------|-----------0---------0---------|-----------0------------0---------|
F#|------0-------------------0----|------0------------------------|------0----------------------0----|
C#|-------------------------------|-------------------------------|----------------------------------|
G#|-------------------------------|-------------------------------|----------------------------------|
D#|-0-----------------------------|-0------------------------0----|-0--------------0-----------------|

D#|-----------7----8----7---8---7---5----|-7----5----0----|-0--------------2---0-------------|
A#|-----------0----0----0----------------|-0----0---------|-----------5------------5---------|
F#|------0-------------------------------|----------------|------5----------------------5----|
C#|--------------------------------------|----------------|----------------------------------|
G#|--------------------------------------|-----------0----|-0--------------------------------|
D#|-0------------------------------------|----------------|----------------------------------|

D#|----------------0--------------------|--------------0-------3---0-------------------|
A#|-----------5---------5-------5-------|-5--------5-------5-----------5-----------5---|
F#|------5-------------------%-------%--|------5---------------------------5-----------|
C#|--------------------------%-------%--|----------------------------------------------|
G#|-0-------------------0-------2-------|-3------------3-----------------------3-------|
D#|-------------------------------------|----------------------------------------------|

D#|--------------0-------0---5---0-------------------|------------12-------------|----------------0--------------|
A#|----------7-------7---------------7---0---0---5---|-------12--------0---------|-----------0---------0---------|
F#|------7-------------------------------------------|----------------------0----|------0-------------------0----|
C#|--------------------------------------------------|---------------------------|-------------------------------|
G#|-5------------5-----------------------------------|---------------------------|-------------------------------|
D#|--------------------------------------------------|-0-------------------------|-0-----------------------------|

D#|----------------0--------------|----------------0--------------|---------|
A#|-----------0---------0---------|-----------0---------0---------|---------|
F#|------0-------------------0----|------0-------------------0----|-0-------|
C#|-------------------------------|-------------------------------|---------|
G#|-------------------------------|-------------------------------|---------|
D#|-0-----------------------------|-0-----------------------------|---------|
Metallica - Bass & Guitar Doodle (Cunning Stunts)
Metallica - Bass & Guitar Doodle (Cunning Stunts).gp4