Metallica - Bass & Guitar Doodle in Paris

Metallica



Title: Bass & Guitar Doodle in Paris
Album: 
Artist: Metallica
Author: 

Track 1: Jason Newsted
G|--------------2---------|------5--------------5--------------5----|--------------2---------|
D|--------0---------------|-----------5--------------5--------------|--------0---------------|
A|-------------------0----|-----------------------------------------|-------------------0----|
E|-0----------------------|-3--------------3--------------3---------|-0----------------------|
B|------------------------|-----------------------------------------|------------------------|

G|---------|--------------------12----------------------|----------------12-----------------------|
D|---------|---------------13--------15-----------------|---------------------13------------------|
A|---------|----------13------------------15------------|-----------15-------------13-------------|
E|-3-------|-3---11----------------------------15-------|------15---------------------------------|
B|---------|----------------------------------------13--|-13----------------------------6----4----|

G|----------------5--------------5---------|---------------|------10-------------10-------------10---|
D|---------------------6--------------6----|---------------|-----------12-------------12-------------|
A|-----------6--------------6--------------|-6------8------|-0--------------0--------------0---------|
E|------6----------------------------------|---------------|-----------------------------------------|
B|-4---------------------------------------|---------------|-----------------------------------------|

G|-14-------------12-------------10--------|------9--------------9--------------9----|
D|------12-------------12-------------12---|-----------10-------------10-------------|
A|-----------0--------------0--------------|-0--------------0--------------0---------|
E|-----------------------------------------|-----------------------------------------|
B|-----------------------------------------|-----------------------------------------|

G|-12-------------10-------------9---------|------10-------------10-------------10---|
D|------10-------------10-------------10---|-----------12-------------12-------------|
A|-----------0--------------0--------------|-0--------------0--------------0---------|
E|-----------------------------------------|-----------------------------------------|
B|-----------------------------------------|-----------------------------------------|

G|-14-------------12-------------10--------|------9--------------9--------------9----|
D|------12-------------12-------------12---|-----------10-------------10-------------|
A|-----------0--------------0--------------|-0--------------0--------------0---------|
E|-----------------------------------------|-----------------------------------------|
B|-----------------------------------------|-----------------------------------------|

G|-12-------------10-------------9---------|------10-------------10-------------10---|
D|------10-------------10-------------10---|-----------12-------------12-------------|
A|-----------0--------------0--------------|-0--------------0--------------0---------|
E|-----------------------------------------|-----------------------------------------|
B|-----------------------------------------|-----------------------------------------|

G|-14-------------12-------------10--------|------9--------------9--------------9----|
D|------12-------------12-------------12---|-----------10-------------10-------------|
A|-----------0--------------0--------------|-0--------------0--------------0---------|
E|-----------------------------------------|-----------------------------------------|
B|-----------------------------------------|-----------------------------------------|

G|-12-------------10-------------9---------|------10-------------10-------------10---|
D|------10-------------10-------------10---|-----------12-------------12-------------|
A|-----------0--------------0--------------|-0--------------0--------------0---------|
E|-----------------------------------------|-----------------------------------------|
B|-----------------------------------------|-----------------------------------------|

G|-14-------------12-------------10--------|------9--------------9--------------9----|
D|------12-------------12-------------12---|-----------10-------------10-------------|
A|-----------0--------------0--------------|-0--------------0--------------0---------|
E|-----------------------------------------|-----------------------------------------|
B|-----------------------------------------|-----------------------------------------|

G|-12-------------10-------------9---------|------10-------------10-------------10---|
D|------10-------------10-------------10---|-----------10-------------10-------------|
A|-----------0--------------0--------------|-8--------------8--------------8---------|
E|-----------------------------------------|-----------------------------------------|
B|-----------------------------------------|-----------------------------------------|

G|------12-------------12-------------12---|------7--------------7--------------7----|
D|-----------12-------------12-------------|-----------7--------------7--------------|
A|-10-------------10-------------10--------|-5--------------5--------------5---------|
E|-----------------------------------------|-----------------------------------------|
B|-----------------------------------------|-----------------------------------------|

G|------7--------------7--------------7----|------10-------------10-------------10---|
D|-----------7--------------7--------------|-----------10-------------10-------------|
A|-5--------------5--------------5---------|-8--------------8--------------8---------|
E|-----------------------------------------|-----------------------------------------|
B|-----------------------------------------|-----------------------------------------|

G|------12-------------12-------------12---|------7--------------7--------------7----|
D|-----------12-------------12-------------|-----------7--------------7--------------|
A|-10-------------10-------------10--------|-5--------------5--------------5---------|
E|-----------------------------------------|-----------------------------------------|
B|-----------------------------------------|-----------------------------------------|

G|------7--------------7--------------7----|---------|----------------9--------------|
D|-----------7--------------7--------------|---------|-----------9---------9---------|
A|-5--------------5--------------5---------|---------|------10------------------10---|
E|-----------------------------------------|-0-------|-0-----------------------------|
B|-----------------------------------------|---------|-------------------------------|

G|----------------9--------------|----------------9--------------|----------------9-----16---|
D|-----------9---------9---------|-----------9---------9---------|-----------9---------------|
A|------10------------------10---|------10------------------10---|------10-------------------|
E|-0-----------------------------|-0-----------------------------|-0-------------------------|
B|-------------------------------|-------------------------------|---------------------------|

G|-16------|
D|---------|
A|---------|
E|---------|
B|---------|
Metallica - Bass & Guitar Doodle in Paris
Metallica - Bass & Guitar Doodle in Paris.gp3