Metallica - Best Of Metallica I

Metallica - Best Of Metallica I

Metallica



Title: Best Of Metallica
Album: 
Artist: Metallica
Author: DocRiff

Track 1: James Hetfield Clean
E|-------|--------------------------------------|-------------------------------|--------------------------------------|
B|-------|--------------------------------------|-------------------------------|--------------------------------------|
G|-%-----|--------------------------------------|-------------------------------|--------------------------------------|
D|-%-----|-6----7----9---------7----6---7---6---|-4----5----5----4----7----4----|-2----3----5---------3----2---3---2---|
A|-------|-7--------------7---------------------|-5--------------5---------5----|-3--------------3---------------------|
E|-------|-0------------------------------------|-------------------------------|--------------------------------------|

E|-------------------------------|-------------------------------|---------|--------------------------------------|
B|-------------------------------|-------------------------------|---------|--------------------------------------|
G|-------------------------------|--------------------------2----|---------|--------------------------------------|
D|-0----2----2----0----2----0----|-0----2----2----0----2---------|-3-------|-6----7----9---------7----6---7---6---|
A|-2--------------2---------2----|-1--------------1--------------|-1-------|-7--------------7---------------------|
E|-------------------------------|-------------------------------|---------|-0------------------------------------|

E|-------------------------------|--------------------------------------|-------------------------------|
B|-------------------------------|--------------------------------------|-------------------------------|
G|-------------------------------|--------------------------------------|-------------------------------|
D|-4----5----5----4----7----4----|-2----3----5---------3----2---3---2---|-0----2----2----0----2----0----|
A|-5--------------5---------5----|-3--------------3---------------------|-2--------------2---------2----|
E|-------------------------------|--------------------------------------|-------------------------------|

E|-------------------------------|---------|--------------------------------------|
B|-------------------------------|---------|--------------------------------------|
G|--------------------------2----|---------|--------------------------------------|
D|-0----2----2----0----2---------|-3-------|-6----7----9---------7----6---7---6---|
A|-1--------------1--------------|-1-------|-7--------------7---------------------|
E|-------------------------------|---------|-0------------------------------------|

E|-------------------------------|--------------------------------------|---------|
B|-------------------------------|--------------------------------------|---------|
G|-------------------------------|--------------------------------------|-%-------|
D|-4----5----5----4----7----4----|-2----3----5---------3----2---3---2---|-%-------|
A|-5--------------5---------5----|-3--------------3---------------------|---------|
E|-------------------------------|--------------------------------------|---------|

E|---------|---------|--------------------------------------|-------------------------------|
B|---------|---------|--------------------------------------|-------------------------------|
G|-%-------|-%-------|--------------------------------------|-------------------------------|
D|-%-------|-%-------|-6----7----9---------7----6---7---6---|-4----5----5----4----7----4----|
A|---------|---------|-7--------------7---------------------|-5--------------5---------5----|
E|---------|---------|-0------------------------------------|-------------------------------|

E|--------------------------------------|---------|---------|---------|---------|---------|
B|--------------------------------------|---------|---------|---------|---------|---------|
G|--------------------------------------|-%-------|-%-------|-%-------|-%-------|-%-------|
D|-2----3----5---------3----2---3---2---|-%-------|-%-------|-%-------|-%-------|-%-------|
A|-3--------------3---------------------|---------|---------|---------|---------|---------|
E|--------------------------------------|---------|---------|---------|---------|---------|

E|---------|---------|---------|---------|---------|---------|---------|---------|---------|
B|---------|---------|---------|---------|---------|---------|---------|---------|---------|
G|-%-------|-%-------|-%-------|-%-------|-%-------|-%-------|-%-------|-%-------|-%-------|
D|-%-------|-%-------|-%-------|-%-------|-%-------|-%-------|-%-------|-%-------|-%-------|
A|---------|---------|---------|---------|---------|---------|---------|---------|---------|
E|---------|---------|---------|---------|---------|---------|---------|---------|---------|

E|---------|---------|---------|---------|---------|---------|--------|---------|---------|
B|---------|---------|---------|---------|---------|---------|--------|---------|---------|
G|-%-------|-%-------|-%-------|-%-------|-%-------|-%-------|-%------|-%-------|-%-------|
D|-%-------|-%-------|-%-------|-%-------|-%-------|-%-------|-%------|-%-------|-%-------|
A|---------|---------|---------|---------|---------|---------|--------|---------|---------|
E|---------|---------|---------|---------|---------|---------|--------|---------|---------|

E|---------|--------|---------|---------|---------|--------|---------|---------|---------|
B|---------|--------|---------|---------|---------|--------|---------|---------|---------|
G|-%-------|-%------|-%-------|-%-------|-%-------|-%------|-%-------|-%-------|-%-------|
D|-%-------|-%------|-%-------|-%-------|-%-------|-%------|-%-------|-%-------|-%-------|
A|---------|--------|---------|---------|---------|--------|---------|---------|---------|
E|---------|--------|---------|---------|---------|--------|---------|---------|---------|

E|--------|---------|---------|---------|--------|---------|---------|---------|--------|
B|--------|---------|---------|---------|--------|---------|---------|---------|--------|
G|-%------|-%-------|-%-------|-%-------|-%------|-%-------|-%-------|-%-------|-%------|
D|-%------|-%-------|-%-------|-%-------|-%------|-%-------|-%-------|-%-------|-%------|
A|--------|---------|---------|---------|--------|---------|---------|---------|--------|
E|--------|---------|---------|---------|--------|---------|---------|---------|--------|

E|---------|---------|---------|--------|---------|---------|---------|--------|---------|
B|---------|---------|---------|--------|---------|---------|---------|--------|---------|
G|-%-------|-%-------|-%-------|-%------|-%-------|-%-------|-%-------|-%------|-%-------|
D|-%-------|-%-------|-%-------|-%------|-%-------|-%-------|-%-------|-%------|-%-------|
A|---------|---------|---------|--------|---------|---------|---------|--------|---------|
E|---------|---------|---------|--------|---------|---------|---------|--------|---------|

E|---------|---------|--------|---------|---------|---------|--------|---------|---------|
B|---------|---------|--------|---------|---------|---------|--------|---------|---------|
G|-%-------|-%-------|-%------|-%-------|-%-------|-%-------|-%------|-%-------|-%-------|
D|-%-------|-%-------|-%------|-%-------|-%-------|-%-------|-%------|-%-------|-%-------|
A|---------|---------|--------|---------|---------|---------|--------|---------|---------|
E|---------|---------|--------|---------|---------|---------|--------|---------|---------|

E|---------|--------|---------|---------|---------|--------|---------|---------|---------|
B|---------|--------|---------|---------|---------|--------|---------|---------|---------|
G|-%-------|-%------|-%-------|-%-------|-%-------|-%------|-%-------|-%-------|-%-------|
D|-%-------|-%------|-%-------|-%-------|-%-------|-%------|-%-------|-%-------|-%-------|
A|---------|--------|---------|---------|---------|--------|---------|---------|---------|
E|---------|--------|---------|---------|---------|--------|---------|---------|---------|

E|--------|---------|---------|---------|--------|---------|---------|---------|--------|
B|--------|---------|---------|---------|--------|---------|---------|---------|--------|
G|-%------|-%-------|-%-------|-%-------|-%------|-%-------|-%-------|-%-------|-%------|
D|-%------|-%-------|-%-------|-%-------|-%------|-%-------|-%-------|-%-------|-%------|
A|--------|---------|---------|---------|--------|---------|---------|---------|--------|
E|--------|---------|---------|---------|--------|---------|---------|---------|--------|

E|---------|---------|---------|--------|---------|---------|---------|---------|---------|
B|---------|---------|---------|--------|---------|---------|---------|---------|---------|
G|-%-------|-%-------|-%-------|-%------|-%-------|-%-------|-%-------|-%-------|-%-------|
D|-%-------|-%-------|-%-------|-%------|-%-------|-%-------|-%-------|-%-------|-%-------|
A|---------|---------|---------|--------|---------|---------|---------|---------|---------|
E|---------|---------|---------|--------|---------|---------|---------|---------|---------|

E|---------|---------|---------|---------|---------|---------|---------|---------|---------|
B|---------|---------|---------|---------|---------|---------|---------|---------|---------|
G|-%-------|-%-------|-%-------|-%-------|-%-------|-%-------|-%-------|-%-------|-%-------|
D|-%-------|-%-------|-%-------|-%-------|-%-------|-%-------|-%-------|-%-------|-%-------|
A|---------|---------|---------|---------|---------|---------|---------|---------|---------|
E|---------|---------|---------|---------|---------|---------|---------|---------|---------|

E|---------|---------|---------|---------|---------|---------|---------|---------|---------|
B|---------|---------|---------|---------|---------|---------|---------|---------|---------|
G|-%-------|-%-------|-%-------|-%-------|-%-------|-%-------|-%-------|-%-------|-%-------|
D|-%-------|-%-------|-%-------|-%-------|-%-------|-%-------|-%-------|-%-------|-%-------|
A|---------|---------|---------|---------|---------|---------|---------|---------|---------|
E|---------|---------|---------|---------|---------|---------|---------|---------|---------|

E|---------|---------|---------|---------|---------|---------|---------|---------|---------|
B|---------|---------|---------|---------|---------|---------|---------|---------|---------|
G|-%-------|-%-------|-%-------|-%-------|-%-------|-%-------|-%-------|-%-------|-%-------|
D|-%-------|-%-------|-%-------|-%-------|-%-------|-%-------|-%-------|-%-------|-%-------|
A|---------|---------|---------|---------|---------|---------|---------|---------|---------|
E|---------|---------|---------|---------|---------|---------|---------|---------|---------|

E|---------|---------|---------|---------|---------|---------|--------|---------|---------|
B|---------|---------|---------|---------|---------|---------|--------|---------|---------|
G|-%-------|-%-------|-%-------|-%-------|-%-------|-%-------|-%------|-%-------|-%-------|
D|-%-------|-%-------|-%-------|-%-------|-%-------|-%-------|-%------|-%-------|-%-------|
A|---------|---------|---------|---------|---------|---------|--------|---------|---------|
E|---------|---------|---------|---------|---------|---------|--------|---------|---------|

E|---------|--------|---------|---------|---------|--------|---------|---------|---------|
B|---------|--------|---------|---------|---------|--------|---------|---------|---------|
G|-%-------|-%------|-%-------|-%-------|-%-------|-%------|-%-------|-%-------|-%-------|
D|-%-------|-%------|-%-------|-%-------|-%-------|-%------|-%-------|-%-------|-%-------|
A|---------|--------|---------|---------|---------|--------|---------|---------|---------|
E|---------|--------|---------|---------|---------|--------|---------|---------|---------|

E|--------|---------|---------|---------|--------|---------|---------|---------|--------|
B|--------|---------|---------|---------|--------|---------|---------|---------|--------|
G|-%------|-%-------|-%-------|-%-------|-%------|-%-------|-%-------|-%-------|-%------|
D|-%------|-%-------|-%-------|-%-------|-%------|-%-------|-%-------|-%-------|-%------|
A|--------|---------|---------|---------|--------|---------|---------|---------|--------|
E|--------|---------|---------|---------|--------|---------|---------|---------|--------|

E|---------|---------|---------|--------|---------|---------|---------|--------|---------|
B|---------|---------|---------|--------|---------|---------|---------|--------|---------|
G|-%-------|-%-------|-%-------|-%------|-%-------|-%-------|-%-------|-%------|-%-------|
D|-%-------|-%-------|-%-------|-%------|-%-------|-%-------|-%-------|-%------|-%-------|
A|---------|---------|---------|--------|---------|---------|---------|--------|---------|
E|---------|---------|---------|--------|---------|---------|---------|--------|---------|

E|---------|---------|---------|---------|---------|---------|---------|---------|---------|
B|---------|---------|---------|---------|---------|---------|---------|---------|---------|
G|-%-------|-%-------|-%-------|-%-------|-%-------|-%-------|-%-------|-%-------|-%-------|
D|-%-------|-%-------|-%-------|-%-------|-%-------|-%-------|-%-------|-%-------|-%-------|
A|---------|---------|---------|---------|---------|---------|---------|---------|---------|
E|---------|---------|---------|---------|---------|---------|---------|---------|---------|

E|---------|---------|---------|---------|---------|---------|---------|---------|---------|
B|---------|---------|---------|---------|---------|---------|---------|---------|---------|
G|-%-------|-%-------|-%-------|-%-------|-%-------|-%-------|-%-------|-%-------|-%-------|
D|-%-------|-%-------|-%-------|-%-------|-%-------|-%-------|-%-------|-%-------|-%-------|
A|---------|---------|---------|---------|---------|---------|---------|---------|---------|
E|---------|---------|---------|---------|---------|---------|---------|---------|---------|

E|---------|---------|---------|---------|---------|---------|---------|---------|---------|
B|---------|---------|---------|---------|---------|---------|---------|---------|---------|
G|-%-------|-%-------|-%-------|-%-------|-%-------|-%-------|-%-------|-%-------|-%-------|
D|-%-------|-%-------|-%-------|-%-------|-%-------|-%-------|-%-------|-%-------|-%-------|
A|---------|---------|---------|---------|---------|---------|---------|---------|---------|
E|---------|---------|---------|---------|---------|---------|---------|---------|---------|

E|---------|---------|---------|---------|---------|---------|---------|---------|---------|
B|---------|---------|---------|---------|---------|---------|---------|---------|---------|
G|-%-------|-%-------|-%-------|-%-------|-%-------|-%-------|-%-------|-%-------|-%-------|
D|-%-------|-%-------|-%-------|-%-------|-%-------|-%-------|-%-------|-%-------|-%-------|
A|---------|---------|---------|---------|---------|---------|---------|---------|---------|
E|---------|---------|---------|---------|---------|---------|---------|---------|---------|

E|---------|--------|---------|---------|---------|--------|---------|---------|---------|
B|---------|--------|---------|---------|---------|--------|---------|---------|---------|
G|-%-------|-%------|-%-------|-%-------|-%-------|-%------|-%-------|-%-------|-%-------|
D|-%-------|-%------|-%-------|-%-------|-%-------|-%------|-%-------|-%-------|-%-------|
A|---------|--------|---------|---------|---------|--------|---------|---------|---------|
E|---------|--------|---------|---------|---------|--------|---------|---------|---------|

E|---------|---------|---------|---------|---------|---------|---------|---------|---------|
B|---------|---------|---------|---------|---------|---------|---------|---------|---------|
G|-%-------|-%-------|-%-------|-%-------|-%-------|-%-------|-%-------|-%-------|-%-------|
D|-%-------|-%-------|-%-------|-%-------|-%-------|-%-------|-%-------|-%-------|-%-------|
A|---------|---------|---------|---------|---------|---------|---------|---------|---------|
E|---------|---------|---------|---------|---------|---------|---------|---------|---------|

E|---------|---------|---------|---------|---------|---------|---------|---------|---------|
B|---------|---------|---------|---------|---------|---------|---------|---------|---------|
G|-%-------|-%-------|-%-------|-%-------|-%-------|-%-------|-%-------|-%-------|-%-------|
D|-%-------|-%-------|-%-------|-%-------|-%-------|-%-------|-%-------|-%-------|-%-------|
A|---------|---------|---------|---------|---------|---------|---------|---------|---------|
E|---------|---------|---------|---------|---------|---------|---------|---------|---------|

E|---------|---------|---------|---------|---------|---------|---------|---------|--------|
B|---------|---------|---------|---------|---------|---------|---------|---------|--------|
G|-%-------|-%-------|-%-------|-%-------|-%-------|-%-------|-%-------|-%-------|-%------|
D|-%-------|-%-------|-%-------|-%-------|-%-------|-%-------|-%-------|-%-------|-%------|
A|---------|---------|---------|---------|---------|---------|---------|---------|--------|
E|---------|---------|---------|---------|---------|---------|---------|---------|--------|

E|---------|--------|---------|--------|---------|---------|---------|--------|---------|
B|---------|--------|---------|--------|---------|---------|---------|--------|---------|
G|-%-------|-%------|-%-------|-%------|-%-------|-%-------|-%-------|-%------|-%-------|
D|-%-------|-%------|-%-------|-%------|-%-------|-%-------|-%-------|-%------|-%-------|
A|---------|--------|---------|--------|---------|---------|---------|--------|---------|
E|---------|--------|---------|--------|---------|---------|---------|--------|---------|

E|--------|---------|--------|---------|---------|---------|---------|---------|---------|
B|--------|---------|--------|---------|---------|---------|---------|---------|---------|
G|-%------|-%-------|-%------|-%-------|-%-------|-%-------|-%-------|-%-------|-%-------|
D|-%------|-%-------|-%------|-%-------|-%-------|-%-------|-%-------|-%-------|-%-------|
A|--------|---------|--------|---------|---------|---------|---------|---------|---------|
E|--------|---------|--------|---------|---------|---------|---------|---------|---------|

E|---------|---------|--------|---------|---------|---------|--------|---------|---------|
B|---------|---------|--------|---------|---------|---------|--------|---------|---------|
G|-%-------|-%-------|-%------|-%-------|-%-------|-%-------|-%------|-%-------|-%-------|
D|-%-------|-%-------|-%------|-%-------|-%-------|-%-------|-%------|-%-------|-%-------|
A|---------|---------|--------|---------|---------|---------|--------|---------|---------|
E|---------|---------|--------|---------|---------|---------|--------|---------|---------|

E|---------|--------|---------|---------|---------|--------|---------|---------|---------|
B|---------|--------|---------|---------|---------|--------|---------|---------|---------|
G|-%-------|-%------|-%-------|-%-------|-%-------|-%------|-%-------|-%-------|-%-------|
D|-%-------|-%------|-%-------|-%-------|-%-------|-%------|-%-------|-%-------|-%-------|
A|---------|--------|---------|---------|---------|--------|---------|---------|---------|
E|---------|--------|---------|---------|---------|--------|---------|---------|---------|

E|---------|---------|---------|---------|---------|---------|---------|---------|---------|
B|---------|---------|---------|---------|---------|---------|---------|---------|---------|
G|-%-------|-%-------|-%-------|-%-------|-%-------|-%-------|-%-------|-%-------|-%-------|
D|-%-------|-%-------|-%-------|-%-------|-%-------|-%-------|-%-------|-%-------|-%-------|
A|---------|---------|---------|---------|---------|---------|---------|---------|---------|
E|---------|---------|---------|---------|---------|---------|---------|---------|---------|

E|---------|---------|---------|---------|---------|---------|---------|---------|---------|
B|---------|---------|---------|---------|---------|---------|---------|---------|---------|
G|-%-------|-%-------|-%-------|-%-------|-%-------|-%-------|-%-------|-%-------|-%-------|
D|-%-------|-%-------|-%-------|-%-------|-%-------|-%-------|-%-------|-%-------|-%-------|
A|---------|---------|---------|---------|---------|---------|---------|---------|---------|
E|---------|---------|---------|---------|---------|---------|---------|---------|---------|

E|---------|---------|---------|---------|---------|---------|---------|---------|---------|
B|---------|---------|---------|---------|---------|---------|---------|---------|---------|
G|-%-------|-%-------|-%-------|-%-------|-%-------|-%-------|-%-------|-%-------|-%-------|
D|-%-------|-%-------|-%-------|-%-------|-%-------|-%-------|-%-------|-%-------|-%-------|
A|---------|---------|---------|---------|---------|---------|---------|---------|---------|
E|---------|---------|---------|---------|---------|---------|---------|---------|---------|

E|---------|---------|---------|---------|---------|---------|---------|---------|---------|
B|---------|---------|---------|---------|---------|---------|---------|---------|---------|
G|-%-------|-%-------|-%-------|-%-------|-%-------|-%-------|-%-------|-%-------|-%-------|
D|-%-------|-%-------|-%-------|-%-------|-%-------|-%-------|-%-------|-%-------|-%-------|
A|---------|---------|---------|---------|---------|---------|---------|---------|---------|
E|---------|---------|---------|---------|---------|---------|---------|---------|---------|

E|---------|---------|---------|---------|---------|---------|---------|---------|---------|
B|---------|---------|---------|---------|---------|---------|---------|---------|---------|
G|-%-------|-%-------|-%-------|-%-------|-%-------|-%-------|-%-------|-%-------|-%-------|
D|-%-------|-%-------|-%-------|-%-------|-%-------|-%-------|-%-------|-%-------|-%-------|
A|---------|---------|---------|---------|---------|---------|---------|---------|---------|
E|---------|---------|---------|---------|---------|---------|---------|---------|---------|

E|--------|---------|---------|---------|--------|---------|---------|---------|--------|
B|--------|---------|---------|---------|--------|---------|---------|---------|--------|
G|-%------|-%-------|-%-------|-%-------|-%------|-%-------|-%-------|-%-------|-%------|
D|-%------|-%-------|-%-------|-%-------|-%------|-%-------|-%-------|-%-------|-%------|
A|--------|---------|---------|---------|--------|---------|---------|---------|--------|
E|--------|---------|---------|---------|--------|---------|---------|---------|--------|

E|---------|---------|---------|--------|---------|---------|---------|--------|---------|
B|---------|---------|---------|--------|---------|---------|---------|--------|---------|
G|-%-------|-%-------|-%-------|-%------|-%-------|-%-------|-%-------|-%------|-%-------|
D|-%-------|-%-------|-%-------|-%------|-%-------|-%-------|-%-------|-%------|-%-------|
A|---------|---------|---------|--------|---------|---------|---------|--------|---------|
E|---------|---------|---------|--------|---------|---------|---------|--------|---------|

E|---------|---------|--------|---------|---------|---------|--------|---------|---------|
B|---------|---------|--------|---------|---------|---------|--------|---------|---------|
G|-%-------|-%-------|-%------|-%-------|-%-------|-%-------|-%------|-%-------|-%-------|
D|-%-------|-%-------|-%------|-%-------|-%-------|-%-------|-%------|-%-------|-%-------|
A|---------|---------|--------|---------|---------|---------|--------|---------|---------|
E|---------|---------|--------|---------|---------|---------|--------|---------|---------|

E|---------|---------|---------|---------|---------|---------|---------|---------|---------|
B|---------|---------|---------|---------|---------|---------|---------|---------|---------|
G|-%-------|-%-------|-%-------|-%-------|-%-------|-%-------|-%-------|-%-------|-%-------|
D|-%-------|-%-------|-%-------|-%-------|-%-------|-%-------|-%-------|-%-------|-%-------|
A|---------|---------|---------|---------|---------|---------|---------|---------|---------|
E|---------|---------|---------|---------|---------|---------|---------|---------|---------|

E|---------|---------|---------|---------|---------|---------|---------|---------|---------|
B|---------|---------|---------|---------|---------|---------|---------|---------|---------|
G|-%-------|-%-------|-%-------|-%-------|-%-------|-%-------|-%-------|-%-------|-%-------|
D|-%-------|-%-------|-%-------|-%-------|-%-------|-%-------|-%-------|-%-------|-%-------|
A|---------|---------|---------|---------|---------|---------|---------|---------|---------|
E|---------|---------|---------|---------|---------|---------|---------|---------|---------|

E|---------|---------|---------|---------|---------|---------|---------|---------|---------|
B|---------|---------|---------|---------|---------|---------|---------|---------|---------|
G|-%-------|-%-------|-%-------|-%-------|-%-------|-%-------|-%-------|-%-------|-%-------|
D|-%-------|-%-------|-%-------|-%-------|-%-------|-%-------|-%-------|-%-------|-%-------|
A|---------|---------|---------|---------|---------|---------|---------|---------|---------|
E|---------|---------|---------|---------|---------|---------|---------|---------|---------|

E|---------|---------|---------|---------|---------|---------|---------|---------|---------|
B|---------|---------|---------|---------|---------|---------|---------|---------|---------|
G|-%-------|-%-------|-%-------|-%-------|-%-------|-%-------|-%-------|-%-------|-%-------|
D|-%-------|-%-------|-%-------|-%-------|-%-------|-%-------|-%-------|-%-------|-%-------|
A|---------|---------|---------|---------|---------|---------|---------|---------|---------|
E|---------|---------|---------|---------|---------|---------|---------|---------|---------|

E|---------|--------|---------|---------|---------|--------|---------|---------|---------|
B|---------|--------|---------|---------|---------|--------|---------|---------|---------|
G|-%-------|-%------|-%-------|-%-------|-%-------|-%------|-%-------|-%-------|-%-------|
D|-%-------|-%------|-%-------|-%-------|-%-------|-%------|-%-------|-%-------|-%-------|
A|---------|--------|---------|---------|---------|--------|---------|---------|---------|
E|---------|--------|---------|---------|---------|--------|---------|---------|---------|

E|--------|---------|---------|---------|---------|---------|---------|---------|--------|
B|--------|---------|---------|---------|---------|---------|---------|---------|--------|
G|-%------|-%-------|-%-------|-%-------|-%-------|-%-------|-%-------|-%-------|-%------|
D|-%------|-%-------|-%-------|-%-------|-%-------|-%-------|-%-------|-%-------|-%------|
A|--------|---------|---------|---------|---------|---------|---------|---------|--------|
E|--------|---------|---------|---------|---------|---------|---------|---------|--------|

E|---------|---------|---------|--------|---------|---------|---------|--------|---------|
B|---------|---------|---------|--------|---------|---------|---------|--------|---------|
G|-%-------|-%-------|-%-------|-%------|-%-------|-%-------|-%-------|-%------|-%-------|
D|-%-------|-%-------|-%-------|-%------|-%-------|-%-------|-%-------|-%------|-%-------|
A|---------|---------|---------|--------|---------|---------|---------|--------|---------|
E|---------|---------|---------|--------|---------|---------|---------|--------|---------|

E|--------|---------|--------|---------|--------|---------|--------|---------|--------|
B|--------|---------|--------|---------|--------|---------|--------|---------|--------|
G|-%------|-%-------|-%------|-%-------|-%------|-%-------|-%------|-%-------|-%------|
D|-%------|-%-------|-%------|-%-------|-%------|-%-------|-%------|-%-------|-%------|
A|--------|---------|--------|---------|--------|---------|--------|---------|--------|
E|--------|---------|--------|---------|--------|---------|--------|---------|--------|

E|---------|--------|---------|--------|---------|--------|--------|--------|---------|
B|---------|--------|---------|--------|---------|--------|--------|--------|---------|
G|-%-------|-%------|-%-------|-%------|-%-------|-%------|-%------|-%------|-%-------|
D|-%-------|-%------|-%-------|-%------|-%-------|-%------|-%------|-%------|-%-------|
A|---------|--------|---------|--------|---------|--------|--------|--------|---------|
E|---------|--------|---------|--------|---------|--------|--------|--------|---------|

E|---------|---------|---------|---------|---------|---------|---------|---------|---------|
B|---------|---------|---------|---------|---------|---------|---------|---------|---------|
G|-%-------|-%-------|-%-------|-%-------|-%-------|-%-------|-%-------|-%-------|-%-------|
D|-%-------|-%-------|-%-------|-%-------|-%-------|-%-------|-%-------|-%-------|-%-------|
A|---------|---------|---------|---------|---------|---------|---------|---------|---------|
E|---------|---------|---------|---------|---------|---------|---------|---------|---------|

E|---------|---------|---------|---------|---------|---------|---------|---------|---------|
B|---------|---------|---------|---------|---------|---------|---------|---------|---------|
G|-%-------|-%-------|-%-------|-%-------|-%-------|-%-------|-%-------|-%-------|-%-------|
D|-%-------|-%-------|-%-------|-%-------|-%-------|-%-------|-%-------|-%-------|-%-------|
A|---------|---------|---------|---------|---------|---------|---------|---------|---------|
E|---------|---------|---------|---------|---------|---------|---------|---------|---------|

E|---------|---------|---------|---------|---------|---------|---------|---------|---------|
B|---------|---------|---------|---------|---------|---------|---------|---------|---------|
G|-%-------|-%-------|-%-------|-%-------|-%-------|-%-------|-%-------|-%-------|-%-------|
D|-%-------|-%-------|-%-------|-%-------|-%-------|-%-------|-%-------|-%-------|-%-------|
A|---------|---------|---------|---------|---------|---------|---------|---------|---------|
E|---------|---------|---------|---------|---------|---------|---------|---------|---------|

E|---------|---------|---------|---------|---------|---------|---------|---------|---------|
B|---------|---------|---------|---------|---------|---------|---------|---------|---------|
G|-%-------|-%-------|-%-------|-%-------|-%-------|-%-------|-%-------|-%-------|-%-------|
D|-%-------|-%-------|-%-------|-%-------|-%-------|-%-------|-%-------|-%-------|-%-------|
A|---------|---------|---------|---------|---------|---------|---------|---------|---------|
E|---------|---------|---------|---------|---------|---------|---------|---------|---------|

E|---------|---------|---------|---------|---------|---------|---------|---------|---------|
B|---------|---------|---------|---------|---------|---------|---------|---------|---------|
G|-%-------|-%-------|-%-------|-%-------|-%-------|-%-------|-%-------|-%-------|-%-------|
D|-%-------|-%-------|-%-------|-%-------|-%-------|-%-------|-%-------|-%-------|-%-------|
A|---------|---------|---------|---------|---------|---------|---------|---------|---------|
E|---------|---------|---------|---------|---------|---------|---------|---------|---------|

E|---------|---------|---------|-------------|---------|---------|---------|-------------|
B|---------|---------|---------|-------------|---------|---------|---------|-------------|
G|-%-------|-%-------|-%-------|-%------%----|-%-------|-%-------|-%-------|-%------%----|
D|-%-------|-%-------|-%-------|-%------%----|-%-------|-%-------|-%-------|-%------%----|
A|---------|---------|---------|-------------|---------|---------|---------|-------------|
E|---------|---------|---------|-------------|---------|---------|---------|-------------|

E|---------|---------|---------|-------------|---------|---------|---------|-------------|
B|---------|---------|---------|-------------|---------|---------|---------|-------------|
G|-%-------|-%-------|-%-------|-%------%----|-%-------|-%-------|-%-------|-%------%----|
D|-%-------|-%-------|-%-------|-%------%----|-%-------|-%-------|-%-------|-%------%----|
A|---------|---------|---------|-------------|---------|---------|---------|-------------|
E|---------|---------|---------|-------------|---------|---------|---------|-------------|

E|---------|---------|---------|-------------|---------|---------|---------|-------------|
B|---------|---------|---------|-------------|---------|---------|---------|-------------|
G|-%-------|-%-------|-%-------|-%------%----|-%-------|-%-------|-%-------|-%------%----|
D|-%-------|-%-------|-%-------|-%------%----|-%-------|-%-------|-%-------|-%------%----|
A|---------|---------|---------|-------------|---------|---------|---------|-------------|
E|---------|---------|---------|-------------|---------|---------|---------|-------------|

E|---------|---------|---------|-------------|---------|---------|---------|-------------|
B|---------|---------|---------|-------------|---------|---------|---------|-------------|
G|-%-------|-%-------|-%-------|-%------%----|-%-------|-%-------|-%-------|-%------%----|
D|-%-------|-%-------|-%-------|-%------%----|-%-------|-%-------|-%-------|-%------%----|
A|---------|---------|---------|-------------|---------|---------|---------|-------------|
E|---------|---------|---------|-------------|---------|---------|---------|-------------|

E|---------|---------|---------|---------|---------|---------|---------|---------|---------|
B|---------|---------|---------|---------|---------|---------|---------|---------|---------|
G|-%-------|-%-------|-%-------|-%-------|-%-------|-%-------|-%-------|-%-------|-%-------|
D|-%-------|-%-------|-%-------|-%-------|-%-------|-%-------|-%-------|-%-------|-%-------|
A|---------|---------|---------|---------|---------|---------|---------|---------|---------|
E|---------|---------|---------|---------|---------|---------|---------|---------|---------|

E|---------|---------|---------|---------|---------|---------|---------|---------|---------|
B|---------|---------|---------|---------|---------|---------|---------|---------|---------|
G|-%-------|-%-------|-%-------|-%-------|-%-------|-%-------|-%-------|-%-------|-%-------|
D|-%-------|-%-------|-%-------|-%-------|-%-------|-%-------|-%-------|-%-------|-%-------|
A|---------|---------|---------|---------|---------|---------|---------|---------|---------|
E|---------|---------|---------|---------|---------|---------|---------|---------|---------|

E|---------|---------|--------|---------|---------|---------|--------|---------|---------|
B|---------|---------|--------|---------|---------|---------|--------|---------|---------|
G|-%-------|-%-------|-%------|-%-------|-%-------|-%-------|-%------|-%-------|-%-------|
D|-%-------|-%-------|-%------|-%-------|-%-------|-%-------|-%------|-%-------|-%-------|
A|---------|---------|--------|---------|---------|---------|--------|---------|---------|
E|---------|---------|--------|---------|---------|---------|--------|---------|---------|

E|---------|--------|---------|---------|--------|---------|--------|---------|---------|
B|---------|--------|---------|---------|--------|---------|--------|---------|---------|
G|-%-------|-%------|-%-------|-%-------|-%------|-%-------|-%------|-%-------|-%-------|
D|-%-------|-%------|-%-------|-%-------|-%------|-%-------|-%------|-%-------|-%-------|
A|---------|--------|---------|---------|--------|---------|--------|---------|---------|
E|---------|--------|---------|---------|--------|---------|--------|---------|---------|

E|---------|--------|---------|---------|---------|---------|---------|---------|---------|
B|---------|--------|---------|---------|---------|---------|---------|---------|---------|
G|-%-------|-%------|-%-------|-%-------|-%-------|-%-------|-%-------|-%-------|-%-------|
D|-%-------|-%------|-%-------|-%-------|-%-------|-%-------|-%-------|-%-------|-%-------|
A|---------|--------|---------|---------|---------|---------|---------|---------|---------|
E|---------|--------|---------|---------|---------|---------|---------|---------|---------|

E|---------|---------|---------|---------|---------|---------|---------|---------|---------|
B|---------|---------|---------|---------|---------|---------|---------|---------|---------|
G|-%-------|-%-------|-%-------|-%-------|-%-------|-%-------|-%-------|-%-------|-%-------|
D|-%-------|-%-------|-%-------|-%-------|-%-------|-%-------|-%-------|-%-------|-%-------|
A|---------|---------|---------|---------|---------|---------|---------|---------|---------|
E|---------|---------|---------|---------|---------|---------|---------|---------|---------|

E|-------------|---------|---------|---------|-------------|---------|---------|---------|
B|-------------|---------|---------|---------|-------------|---------|---------|---------|
G|-%------%----|-%-------|-%-------|-%-------|-%------%----|-%-------|-%-------|-%-------|
D|-%------%----|-%-------|-%-------|-%-------|-%------%----|-%-------|-%-------|-%-------|
A|-------------|---------|---------|---------|-------------|---------|---------|---------|
E|-------------|---------|---------|---------|-------------|---------|---------|---------|

E|-------------|---------|---------|---------|-------------|---------|---------|---------|
B|-------------|---------|---------|---------|-------------|---------|---------|---------|
G|-%------%----|-%-------|-%-------|-%-------|-%------%----|-%-------|-%-------|-%-------|
D|-%------%----|-%-------|-%-------|-%-------|-%------%----|-%-------|-%-------|-%-------|
A|-------------|---------|---------|---------|-------------|---------|---------|---------|
E|-------------|---------|---------|---------|-------------|---------|---------|---------|

E|-------------|---------|---------|---------|-------------|---------|---------|---------|
B|-------------|---------|---------|---------|-------------|---------|---------|---------|
G|-%------%----|-%-------|-%-------|-%-------|-%------%----|-%-------|-%-------|-%-------|
D|-%------%----|-%-------|-%-------|-%-------|-%------%----|-%-------|-%-------|-%-------|
A|-------------|---------|---------|---------|-------------|---------|---------|---------|
E|-------------|---------|---------|---------|-------------|---------|---------|---------|

E|---------|---------|---------|---------|---------|---------|---------|---------|---------|
B|---------|---------|---------|---------|---------|---------|---------|---------|---------|
G|-%-------|-%-------|-%-------|-%-------|-%-------|-%-------|-%-------|-%-------|-%-------|
D|-%-------|-%-------|-%-------|-%-------|-%-------|-%-------|-%-------|-%-------|-%-------|
A|---------|---------|---------|---------|---------|---------|---------|---------|---------|
E|---------|---------|---------|---------|---------|---------|---------|---------|---------|

E|---------|---------|---------|---------|---------|---------|---------|---------|--------|
B|---------|---------|---------|---------|---------|---------|---------|---------|--------|
G|-%-------|-%-------|-%-------|-%-------|-%-------|-%-------|-%-------|-%-------|-%------|
D|-%-------|-%-------|-%-------|-%-------|-%-------|-%-------|-%-------|-%-------|-%------|
A|---------|---------|---------|---------|---------|---------|---------|---------|--------|
E|---------|---------|---------|---------|---------|---------|---------|---------|--------|

E|---------|---------|---------|--------|---------|---------|---------|--------|---------|
B|---------|---------|---------|--------|---------|---------|---------|--------|---------|
G|-%-------|-%-------|-%-------|-%------|-%-------|-%-------|-%-------|-%------|-%-------|
D|-%-------|-%-------|-%-------|-%------|-%-------|-%-------|-%-------|-%------|-%-------|
A|---------|---------|---------|--------|---------|---------|---------|--------|---------|
E|---------|---------|---------|--------|---------|---------|---------|--------|---------|

E|---------|--------|---------|--------|---------|---------|---------|--------|---------|
B|---------|--------|---------|--------|---------|---------|---------|--------|---------|
G|-%-------|-%------|-%-------|-%------|-%-------|-%-------|-%-------|-%------|-%-------|
D|-%-------|-%------|-%-------|-%------|-%-------|-%-------|-%-------|-%------|-%-------|
A|---------|--------|---------|--------|---------|---------|---------|--------|---------|
E|---------|--------|---------|--------|---------|---------|---------|--------|---------|

E|---------|---------|---------|---------|---------|---------|---------|---------|---------|
B|---------|---------|---------|---------|---------|---------|---------|---------|---------|
G|-%-------|-%-------|-%-------|-%-------|-%-------|-%-------|-%-------|-%-------|-%-------|
D|-%-------|-%-------|-%-------|-%-------|-%-------|-%-------|-%-------|-%-------|-%-------|
A|---------|---------|---------|---------|---------|---------|---------|---------|---------|
E|---------|---------|---------|---------|---------|---------|---------|---------|---------|

E|-------------------------|-------------------------|-0----2----0----------------3-----|
B|-------------------------|-------------3-----------|----------------3-----------------|
G|-------------------0-----|-------2-----------2-----|----------------------2-----------|
D|-------------2-----------|-0-----------------------|----------------------------------|
A|-------2-----------------|-------------------------|----------------------------------|
E|-0-----------------------|-------------------------|----------------------------------|

E|-------------------------|-------------------------|-------------------------|-------------------------|
B|-------------3-----------|-3-----------------0-----|-------------0-----------|-------------0-----------|
G|-------0-----------0-----|-------0-----------------|-------2-----------------|-------2-----------------|
D|-------------------------|-------------2-----------|-------------------------|-------------------------|
A|-3-----------------------|-------------------------|-0-----------------0-----|-2-----------------2-----|
E|-------------------------|-------------------------|-------------------------|-------------------------|

E|-------------------------|-------------------------|-------------------------|-0----2----0----------------3-----|
B|-------------0-----------|-------------------------|-------------3-----------|----------------3-----------------|
G|-------2-----------------|-------------------0-----|-------2-----------2-----|----------------------2-----------|
D|-1-----------------------|-------------2-----------|-0-----------------------|----------------------------------|
A|-------------------------|-------2-----------------|-------------------------|----------------------------------|
E|-------------------3-----|-0-----------------------|-------------------------|----------------------------------|

E|-------------------------|-------------------------|-------------------------|-------------------------|
B|-------------3-----------|-3-----------------0-----|-------------0-----------|-------------0-----------|
G|-------0-----------0-----|-------0-----------------|-------2-----------------|-------2-----------------|
D|-------------------------|-------------2-----------|-------------------------|-------------------------|
A|-3-----------------------|-------------------------|-0-----------------0-----|-2-----------------2-----|
E|-------------------------|-------------------------|-------------------------|-------------------------|

E|-------------------------|---------|---------|---------|---------|---------|---------|
B|-------------0-----------|---------|---------|---------|---------|---------|---------|
G|-------2-----------------|-%-------|-%-------|-%-------|-%-------|-%-------|-%-------|
D|-1-----------------------|-%-------|-%-------|-%-------|-%-------|-%-------|-%-------|
A|-------------------------|---------|---------|---------|---------|---------|---------|
E|-------------------3-----|---------|---------|---------|---------|---------|---------|

E|---------|---------|---------|---------|---------|---------|---------|---------|---------|
B|---------|---------|---------|---------|---------|---------|---------|---------|---------|
G|-%-------|-%-------|-%-------|-%-------|-%-------|-%-------|-%-------|-%-------|-%-------|
D|-%-------|-%-------|-%-------|-%-------|-%-------|-%-------|-%-------|-%-------|-%-------|
A|---------|---------|---------|---------|---------|---------|---------|---------|---------|
E|---------|---------|---------|---------|---------|---------|---------|---------|---------|

E|---------|---------|---------|---------|---------|---------|---------|---------|---------|
B|---------|---------|---------|---------|---------|---------|---------|---------|---------|
G|-%-------|-%-------|-%-------|-%-------|-%-------|-%-------|-%-------|-%-------|-%-------|
D|-%-------|-%-------|-%-------|-%-------|-%-------|-%-------|-%-------|-%-------|-%-------|
A|---------|---------|---------|---------|---------|---------|---------|---------|---------|
E|---------|---------|---------|---------|---------|---------|---------|---------|---------|

E|---------|---------|---------|---------|---------|---------|---------|---------|---------|
B|---------|---------|---------|---------|---------|---------|---------|---------|---------|
G|-%-------|-%-------|-%-------|-%-------|-%-------|-%-------|-%-------|-%-------|-%-------|
D|-%-------|-%-------|-%-------|-%-------|-%-------|-%-------|-%-------|-%-------|-%-------|
A|---------|---------|---------|---------|---------|---------|---------|---------|---------|
E|---------|---------|---------|---------|---------|---------|---------|---------|---------|

E|---------|---------|---------|---------|---------|---------|---------|---------|---------|
B|---------|---------|---------|---------|---------|---------|---------|---------|---------|
G|-%-------|-%-------|-%-------|-%-------|-%-------|-%-------|-%-------|-%-------|-%-------|
D|-%-------|-%-------|-%-------|-%-------|-%-------|-%-------|-%-------|-%-------|-%-------|
A|---------|---------|---------|---------|---------|---------|---------|---------|---------|
E|---------|---------|---------|---------|---------|---------|---------|---------|---------|

E|---------|---------|---------|---------|---------|---------|---------|---------|---------|
B|---------|---------|---------|---------|---------|---------|---------|---------|---------|
G|-%-------|-%-------|-%-------|-%-------|-%-------|-%-------|-%-------|-%-------|-%-------|
D|-%-------|-%-------|-%-------|-%-------|-%-------|-%-------|-%-------|-%-------|-%-------|
A|---------|---------|---------|---------|---------|---------|---------|---------|---------|
E|---------|---------|---------|---------|---------|---------|---------|---------|---------|

E|---------|---------|---------|---------|---------|---------|---------|---------|---------|
B|---------|---------|---------|---------|---------|---------|---------|---------|---------|
G|-%-------|-%-------|-%-------|-%-------|-%-------|-%-------|-%-------|-%-------|-%-------|
D|-%-------|-%-------|-%-------|-%-------|-%-------|-%-------|-%-------|-%-------|-%-------|
A|---------|---------|---------|---------|---------|---------|---------|---------|---------|
E|---------|---------|---------|---------|---------|---------|---------|---------|---------|

E|---------|---------|---------|---------|---------|---------|---------|---------|---------|
B|---------|---------|---------|---------|---------|---------|---------|---------|---------|
G|-%-------|-%-------|-%-------|-%-------|-%-------|-%-------|-%-------|-%-------|-%-------|
D|-%-------|-%-------|-%-------|-%-------|-%-------|-%-------|-%-------|-%-------|-%-------|
A|---------|---------|---------|---------|---------|---------|---------|---------|---------|
E|---------|---------|---------|---------|---------|---------|---------|---------|---------|

E|---------|---------|---------|---------|---------|---------|---------|---------|---------|
B|---------|---------|---------|---------|---------|---------|---------|---------|---------|
G|-%-------|-%-------|-%-------|-%-------|-%-------|-%-------|-%-------|-%-------|-%-------|
D|-%-------|-%-------|-%-------|-%-------|-%-------|-%-------|-%-------|-%-------|-%-------|
A|---------|---------|---------|---------|---------|---------|---------|---------|---------|
E|---------|---------|---------|---------|---------|---------|---------|---------|---------|

E|---------|---------|---------|---------|---------|---------|---------|---------|---------|
B|---------|---------|---------|---------|---------|---------|---------|---------|---------|
G|-%-------|-%-------|-%-------|-%-------|-%-------|-%-------|-%-------|-%-------|-%-------|
D|-%-------|-%-------|-%-------|-%-------|-%-------|-%-------|-%-------|-%-------|-%-------|
A|---------|---------|---------|---------|---------|---------|---------|---------|---------|
E|---------|---------|---------|---------|---------|---------|---------|---------|---------|

E|---------|---------|---------|---------|---------|---------|---------|---------|---------|
B|---------|---------|---------|---------|---------|---------|---------|---------|---------|
G|-%-------|-%-------|-%-------|-%-------|-%-------|-%-------|-%-------|-%-------|-%-------|
D|-%-------|-%-------|-%-------|-%-------|-%-------|-%-------|-%-------|-%-------|-%-------|
A|---------|---------|---------|---------|---------|---------|---------|---------|---------|
E|---------|---------|---------|---------|---------|---------|---------|---------|---------|

E|---------|---------|---------|-------------|---------|---------|---------|-------------|
B|---------|---------|---------|-------------|---------|---------|---------|-------------|
G|-%-------|-%-------|-%-------|-%------%----|-%-------|-%-------|-%-------|-%------%----|
D|-%-------|-%-------|-%-------|-%------%----|-%-------|-%-------|-%-------|-%------%----|
A|---------|---------|---------|-------------|---------|---------|---------|-------------|
E|---------|---------|---------|-------------|---------|---------|---------|-------------|

E|---------|---------|---------|-------------|---------|---------|---------|-------------|
B|---------|---------|---------|-------------|---------|---------|---------|-------------|
G|-%-------|-%-------|-%-------|-%------%----|-%-------|-%-------|-%-------|-%------%----|
D|-%-------|-%-------|-%-------|-%------%----|-%-------|-%-------|-%-------|-%------%----|
A|---------|---------|---------|-------------|---------|---------|---------|-------------|
E|---------|---------|---------|-------------|---------|---------|---------|-------------|

E|---------|---------|---------|-------------|---------|---------|---------|-------------|
B|---------|---------|---------|-------------|---------|---------|---------|-------------|
G|-%-------|-%-------|-%-------|-%------%----|-%-------|-%-------|-%-------|-%------%----|
D|-%-------|-%-------|-%-------|-%------%----|-%-------|-%-------|-%-------|-%------%----|
A|---------|---------|---------|-------------|---------|---------|---------|-------------|
E|---------|---------|---------|-------------|---------|---------|---------|-------------|

E|---------|---------|---------|---------|---------|---------|---------|---------|---------|
B|---------|---------|---------|---------|---------|---------|---------|---------|---------|
G|-%-------|-%-------|-%-------|-%-------|-%-------|-%-------|-%-------|-%-------|-%-------|
D|-%-------|-%-------|-%-------|-%-------|-%-------|-%-------|-%-------|-%-------|-%-------|
A|---------|---------|---------|---------|---------|---------|---------|---------|---------|
E|---------|---------|---------|---------|---------|---------|---------|---------|---------|

E|---------|---------|---------|---------|---------|---------|---------|---------|---------|
B|---------|---------|---------|---------|---------|---------|---------|---------|---------|
G|-%-------|-%-------|-%-------|-%-------|-%-------|-%-------|-%-------|-%-------|-%-------|
D|-%-------|-%-------|-%-------|-%-------|-%-------|-%-------|-%-------|-%-------|-%-------|
A|---------|---------|---------|---------|---------|---------|---------|---------|---------|
E|---------|---------|---------|---------|---------|---------|---------|---------|---------|

E|---------|---------|---------|---------|---------|---------|---------|---------|---------|
B|---------|---------|---------|---------|---------|---------|---------|---------|---------|
G|-%-------|-%-------|-%-------|-%-------|-%-------|-%-------|-%-------|-%-------|-%-------|
D|-%-------|-%-------|-%-------|-%-------|-%-------|-%-------|-%-------|-%-------|-%-------|
A|---------|---------|---------|---------|---------|---------|---------|---------|---------|
E|---------|---------|---------|---------|---------|---------|---------|---------|---------|

E|---------|---------|---------|---------|---------|---------|---------|---------|---------|
B|---------|---------|---------|---------|---------|---------|---------|---------|---------|
G|-%-------|-%-------|-%-------|-%-------|-%-------|-%-------|-%-------|-%-------|-%-------|
D|-%-------|-%-------|-%-------|-%-------|-%-------|-%-------|-%-------|-%-------|-%-------|
A|---------|---------|---------|---------|---------|---------|---------|---------|---------|
E|---------|---------|---------|---------|---------|---------|---------|---------|---------|

E|---------|---------|---------|-------------|---------|---------|---------|-------------|
B|---------|---------|---------|-------------|---------|---------|---------|-------------|
G|-%-------|-%-------|-%-------|-%------%----|-%-------|-%-------|-%-------|-%------%----|
D|-%-------|-%-------|-%-------|-%------%----|-%-------|-%-------|-%-------|-%------%----|
A|---------|---------|---------|-------------|---------|---------|---------|-------------|
E|---------|---------|---------|-------------|---------|---------|---------|-------------|

E|---------|---------|---------|-------------|---------|---------|---------|-------------|
B|---------|---------|---------|-------------|---------|---------|---------|-------------|
G|-%-------|-%-------|-%-------|-%------%----|-%-------|-%-------|-%-------|-%------%----|
D|-%-------|-%-------|-%-------|-%------%----|-%-------|-%-------|-%-------|-%------%----|
A|---------|---------|---------|-------------|---------|---------|---------|-------------|
E|---------|---------|---------|-------------|---------|---------|---------|-------------|

E|---------|---------|---------|-------------|---------|---------|---------|-------------|
B|---------|---------|---------|-------------|---------|---------|---------|-------------|
G|-%-------|-%-------|-%-------|-%------%----|-%-------|-%-------|-%-------|-%------%----|
D|-%-------|-%-------|-%-------|-%------%----|-%-------|-%-------|-%-------|-%------%----|
A|---------|---------|---------|-------------|---------|---------|---------|-------------|
E|---------|---------|---------|-------------|---------|---------|---------|-------------|

E|---------|---------|---------|---------|---------|---------|---------|---------|---------|
B|---------|---------|---------|---------|---------|---------|---------|---------|---------|
G|-%-------|-%-------|-%-------|-%-------|-%-------|-%-------|-%-------|-%-------|-%-------|
D|-%-------|-%-------|-%-------|-%-------|-%-------|-%-------|-%-------|-%-------|-%-------|
A|---------|---------|---------|---------|---------|---------|---------|---------|---------|
E|---------|---------|---------|---------|---------|---------|---------|---------|---------|

E|---------|---------|---------|---------|---------|---------|---------|---------|---------|
B|---------|---------|---------|---------|---------|---------|---------|---------|---------|
G|-%-------|-%-------|-%-------|-%-------|-%-------|-%-------|-%-------|-%-------|-%-------|
D|-%-------|-%-------|-%-------|-%-------|-%-------|-%-------|-%-------|-%-------|-%-------|
A|---------|---------|---------|---------|---------|---------|---------|---------|---------|
E|---------|---------|---------|---------|---------|---------|---------|---------|---------|

E|---------|---------|--------|---------|---------|---------|--------|---------|---------|
B|---------|---------|--------|---------|---------|---------|--------|---------|---------|
G|-%-------|-%-------|-%------|-%-------|-%-------|-%-------|-%------|-%-------|-%-------|
D|-%-------|-%-------|-%------|-%-------|-%-------|-%-------|-%------|-%-------|-%-------|
A|---------|---------|--------|---------|---------|---------|--------|---------|---------|
E|---------|---------|--------|---------|---------|---------|--------|---------|---------|

E|---------|--------|---------|---------|--------|---------|--------|---------|---------|
B|---------|--------|---------|---------|--------|---------|--------|---------|---------|
G|-%-------|-%------|-%-------|-%-------|-%------|-%-------|-%------|-%-------|-%-------|
D|-%-------|-%------|-%-------|-%-------|-%------|-%-------|-%------|-%-------|-%-------|
A|---------|--------|---------|---------|--------|---------|--------|---------|---------|
E|---------|--------|---------|---------|--------|---------|--------|---------|---------|

E|---------|--------|---------|---------|---------|---------|---------|---------|---------|
B|---------|--------|---------|---------|---------|---------|---------|---------|---------|
G|-%-------|-%------|-%-------|-%-------|-%-------|-%-------|-%-------|-%-------|-%-------|
D|-%-------|-%------|-%-------|-%-------|-%-------|-%-------|-%-------|-%-------|-%-------|
A|---------|--------|---------|---------|---------|---------|---------|---------|---------|
E|---------|--------|---------|---------|---------|---------|---------|---------|---------|

E|-------------|---------|---------|---------|-------------|---------|---------|---------|
B|-------------|---------|---------|---------|-------------|---------|---------|---------|
G|-%------%----|-%-------|-%-------|-%-------|-%------%----|-%-------|-%-------|-%-------|
D|-%------%----|-%-------|-%-------|-%-------|-%------%----|-%-------|-%-------|-%-------|
A|-------------|---------|---------|---------|-------------|---------|---------|---------|
E|-------------|---------|---------|---------|-------------|---------|---------|---------|

E|-------------|---------|---------|---------|-------------|--------------|---------|
B|-------------|---------|---------|---------|-------------|--------------|---------|
G|-%------%----|-%-------|-%-------|-%-------|-%------%----|-%------%-----|-%-------|
D|-%------%----|-%-------|-%-------|-%-------|-%------%----|-%------%-----|-%-------|
A|-------------|---------|---------|---------|-------------|--------------|---------|
E|-------------|---------|---------|---------|-------------|--------------|---------|

E|---------|---------|---------|---------|---------|---------|---------|---------|---------|
B|---------|---------|---------|---------|---------|---------|---------|---------|---------|
G|-%-------|-%-------|-%-------|-%-------|-%-------|-%-------|-%-------|-%-------|-%-------|
D|-%-------|-%-------|-%-------|-%-------|-%-------|-%-------|-%-------|-%-------|-%-------|
A|---------|---------|---------|---------|---------|---------|---------|---------|---------|
E|---------|---------|---------|---------|---------|---------|---------|---------|---------|
Metallica - Best Of Metallica I
Metallica - Best Of Metallica I.gp3