Metallica - Better Than You

Metallica



Title: Better Than You
Album: 
Artist: 
Author: Metallica

Track 1: Guitar 1
D#|---------|---------|---------|------------------------|------------------------|
A#|---------|---------|---------|------------------------|------------------------|
F#|-%-------|-%-------|-%-------|-%---------------%------|-%----------------------|
C#|-%-------|-%-------|-%-------|-%---------------%------|-%------5----6----7-----|
G#|---------|---------|---------|------------------------|--------5----6----7-----|
D#|---------|---------|---------|-------2----2-----------|--------3----4----5-----|

D#|-----------------------------|------------------------|-----------------------------|
A#|-----------------------------|------------------------|-----------------------------|
F#|------------------%----%-----|-%----------------------|------------------%----%-----|
C#|-5-----------2----%----%-----|-%------5----6----7-----|-5-----------2----%----%-----|
G#|-5-----------2---------------|--------5----6----7-----|-5-----------2---------------|
D#|-3------0----0---------------|--------3----4----5-----|-3------0----0---------------|

D#|------------------------|-----------------------------|------------------------|
A#|------------------------|-----------------------------|------------------------|
F#|-%----------------------|------------------%----%-----|-%----------------------|
C#|-%------5----6----7-----|-5-----------2----%----%-----|-%------5----6----7-----|
G#|--------5----6----7-----|-5-----------2---------------|--------5----6----7-----|
D#|--------3----4----5-----|-3------0----0---------------|--------3----4----5-----|

D#|-----------------------------|------------------------|---------------------------------|
A#|-----------------------------|------------------------|---------------------------------|
F#|------------------%----%-----|-%----------------------|---------------------------------|
C#|-5-----------2----%----%-----|-%------5----6----7-----|-5-----------2-------------------|
G#|-5-----------2---------------|--------5----6----7-----|-5-----------2-------------------|
D#|-3------0----0---------------|--------3----4----5-----|-3------0----0----0----0----0----|

D#|-------------------------------------|---------------------------------|-------------------------------------|
A#|-------------------------------------|---------------------------------|-------------------------------------|
F#|-------------------------------------|---------------------------------|-------------------------------------|
C#|-2-------------------5----6----7-----|-5-----------2-------------------|-2-------------------5----6----7-----|
G#|-2-------------------5----6----7-----|-5-----------2-------------------|-2-------------------5----6----7-----|
D#|-0----0----0----0----3----4----5-----|-3------0----0----0----0----0----|-0----0----0----0----3----4----5-----|

D#|---------------------------------|-------------------------------------|---------------------------------|
A#|---------------------------------|-------------------------------------|---------------------------------|
F#|---------------------------------|-------------------------------------|---------------------------------|
C#|-5-----------2-------------------|-2-------------------5----6----7-----|-5-----------2-------------------|
G#|-5-----------2-------------------|-2-------------------5----6----7-----|-5-----------2-------------------|
D#|-3------0----0----0----0----0----|-0----0----0----0----3----4----5-----|-3------0----0----0----0----0----|

D#|-------------------------------------|-----------------------------|-----------------------------|
A#|-------------------------------------|-----------------------------|-----------------------------|
F#|-------------------------------------|-----------------------------|-----------------------------|
C#|-2-------------------5----6----7-----|-5-----5----5-----5----5-----|-7-----7----7-----7----7-----|
G#|-2-------------------5----6----7-----|-5-----5----5-----5----5-----|-7-----7----7-----7----7-----|
D#|-0----0----0----0----3----4----5-----|-3-----3----3-----3----3-----|-5-----5----5-----5----5-----|

D#|---------------------------------|-------------------------------------|-----------------------------|
A#|---------------------------------|-------------------------------------|-----------------------------|
F#|---------------------------------|-------------------------------------|-----------------------------|
C#|-5-----------2-------------------|-2-------------------5----6----7-----|-5-----5----5-----5----5-----|
G#|-5-----------2-------------------|-2-------------------5----6----7-----|-5-----5----5-----5----5-----|
D#|-3------0----0----0----0----0----|-0----0----0----0----3----4----5-----|-3-----3----3-----3----3-----|

D#|-----------------------------|---------------------------------|-------------------------------------|
A#|-----------------------------|---------------------------------|-------------------------------------|
F#|-----------------------------|---------------------------------|-------------------------------------|
C#|-7-----7----7-----7----7-----|-5-----------2-------------------|-2-------------------5----6----7-----|
G#|-7-----7----7-----7----7-----|-5-----------2-------------------|-2-------------------5----6----7-----|
D#|-5-----5----5-----5----5-----|-3------0----0----0----0----0----|-0----0----0----0----3----4----5-----|

D#|-----------------------------|-----------------------------|-----------------------------|
A#|-----------------------------|-----------------------------|-----------------------------|
F#|-----------------------------|-----------------------------|-5-----5----5-----5----5-----|
C#|-5-----5----5-----5----5-----|-7-----7----7-----7----7-----|-5-----5----5-----5----5-----|
G#|-5-----5----5-----5----5-----|-7-----7----7-----7----7-----|-3-----3----3-----3----3-----|
D#|-3-----3----3-----3----3-----|-5-----5----5-----5----5-----|-3-----3----3-----3----3-----|

D#|-----------------------------|-----------------------------|-----------------------------|
A#|-----------------------------|-----------------------------|-----------------------------|
F#|-7-----7----------7----0-----|-----------------------------|-----------------------------|
C#|-7-----7----7-----7----0-----|-5-----5----5-----5----5-----|-7-----7----7-----7----7-----|
G#|-5-----5----5-----5----0-----|-5-----5----5-----5----5-----|-7-----7----7-----7----7-----|
D#|-5-----5---------------------|-3-----3----3-----3----3-----|-5-----5----5-----5----5-----|

D#|-------------------------|---------------------------------|---------------------------------|
A#|-------------------------|---------------------------------|---------------------------------|
F#|-10----10----10----10----|-12----%-----%-------------------|---------------------------------|
C#|-10----10----10----10----|-12----%-----%----5----6----7----|-5-----------2-------------------|
G#|-8-----8-----8-----8-----|-10---------------5----6----7----|-5-----------2-------------------|
D#|-8-----8-----8-----8-----|-10---------------3----4----5----|-3------0----0----0----0----0----|

D#|-------------------------------------|---------------------------------|-------------------------------------|
A#|-------------------------------------|---------------------------------|-------------------------------------|
F#|-------------------------------------|---------------------------------|-------------------------------------|
C#|-2-------------------5----6----7-----|-5-----------2-------------------|-2-------------------5----6----7-----|
G#|-2-------------------5----6----7-----|-5-----------2-------------------|-2-------------------5----6----7-----|
D#|-0----0----0----0----3----4----5-----|-3------0----0----0----0----0----|-0----0----0----0----3----4----5-----|

D#|---------------------------------|-------------------------------------|---------------------------------|
A#|---------------------------------|-------------------------------------|---------------------------------|
F#|---------------------------------|-------------------------------------|---------------------------------|
C#|-5-----------2-------------------|-2-------------------5----6----7-----|-5-----------2-------------------|
G#|-5-----------2-------------------|-2-------------------5----6----7-----|-5-----------2-------------------|
D#|-3------0----0----0----0----0----|-0----0----0----0----3----4----5-----|-3------0----0----0----0----0----|

D#|-------------------------------------|-----------------------------|-----------------------------|
A#|-------------------------------------|-----------------------------|-----------------------------|
F#|-------------------------------------|-----------------------------|-----------------------------|
C#|-2-------------------5----6----7-----|-5-----5----5-----5----5-----|-7-----7----7-----7----7-----|
G#|-2-------------------5----6----7-----|-5-----5----5-----5----5-----|-7-----7----7-----7----7-----|
D#|-0----0----0----0----3----4----5-----|-3-----3----3-----3----3-----|-5-----5----5-----5----5-----|

D#|---------------------------------|-------------------------------------|-----------------------------|
A#|---------------------------------|-------------------------------------|-----------------------------|
F#|---------------------------------|-------------------------------------|-----------------------------|
C#|-5-----------2-------------------|-2-------------------5----6----7-----|-5-----5----5-----5----5-----|
G#|-5-----------2-------------------|-2-------------------5----6----7-----|-5-----5----5-----5----5-----|
D#|-3------0----0----0----0----0----|-0----0----0----0----3----4----5-----|-3-----3----3-----3----3-----|

D#|-----------------------------|---------------------------------|-------------------------------------|
A#|-----------------------------|---------------------------------|-------------------------------------|
F#|-----------------------------|---------------------------------|-------------------------------------|
C#|-7-----7----7-----7----7-----|-5-----------2-------------------|-2-------------------5----6----7-----|
G#|-7-----7----7-----7----7-----|-5-----------2-------------------|-2-------------------5----6----7-----|
D#|-5-----5----5-----5----5-----|-3------0----0----0----0----0----|-0----0----0----0----3----4----5-----|

D#|-----------------------------|-----------------------------|-----------------------------|
A#|-----------------------------|-----------------------------|-----------------------------|
F#|-----------------------------|-----------------------------|-5-----5----5-----5----5-----|
C#|-5-----5----5-----5----5-----|-7-----7----7-----7----7-----|-5-----5----5-----5----5-----|
G#|-5-----5----5-----5----5-----|-7-----7----7-----7----7-----|-3-----3----3-----3----3-----|
D#|-3-----3----3-----3----3-----|-5-----5----5-----5----5-----|-3-----3----3-----3----3-----|

D#|-----------------------------|-----------------------------|-----------------------------|
A#|-----------------------------|-----------------------------|-----------------------------|
F#|-7-----7----------7----0-----|-----------------------------|-----------------------------|
C#|-7-----7----7-----7----0-----|-5-----5----5-----5----5-----|-7-----7----7-----7----7-----|
G#|-5-----5----5-----5----0-----|-5-----5----5-----5----5-----|-7-----7----7-----7----7-----|
D#|-5-----5---------------------|-3-----3----3-----3----3-----|-5-----5----5-----5----5-----|

D#|-------------------------|---------------------------------|---------------------------------|
A#|-------------------------|---------------------------------|---------------------------------|
F#|-10----10----10----10----|-12----%-----%-------------------|---------------------------------|
C#|-10----10----10----10----|-12----%-----%----5----6----7----|-5-----------2-------------------|
G#|-8-----8-----8-----8-----|-10---------------5----6----7----|-5-----------2-------------------|
D#|-8-----8-----8-----8-----|-10---------------3----4----5----|-3------0----0----0----0----0----|

D#|-------------------------------------|---------------------------------|-------------------------------------|
A#|-------------------------------------|---------------------------------|-------------------------------------|
F#|-------------------------------------|---------------------------------|-------------------------------------|
C#|-2-------------------5----6----7-----|-5-----------2-------------------|-2-------------------5----6----7-----|
G#|-2-------------------5----6----7-----|-5-----------2-------------------|-2-------------------5----6----7-----|
D#|-0----0----0----0----3----4----5-----|-3------0----0----0----0----0----|-0----0----0----0----3----4----5-----|

D#|---------------------------------|-------------------------------------|---------------------------------|
A#|---------------------------------|-------------------------------------|---------------------------------|
F#|---------------------------------|-------------------------------------|---------------------------------|
C#|-5-----------2-------------------|-2-------------------5----6----7-----|-5-----------2-------------------|
G#|-5-----------2-------------------|-2-------------------5----6----7-----|-5-----------2-------------------|
D#|-3------0----0----0----0----0----|-0----0----0----0----3----4----5-----|-3------0----0----0----0----0----|

D#|-------------------------------------|-------------------------|---------------------------------|
A#|-------------------------------------|-------------------------|---------------------------------|
F#|-------------------------------------|-2-----------------------|-2----4----4-----2-----X----X----|
C#|-2-------------------5----6----7-----|-2----4------2----4------|-2----4----4-----2-----X----X----|
G#|-2-------------------5----6----7-----|------4------2----4------|---------------------------------|
D#|-0----0----0----0----3----4----5-----|-------------------------|---------------------------------|

D#|-------------------------|---------------|-------------------------|---------------------------------|
A#|-------------------------|---------------|-------------------------|---------------------------------|
F#|-2-----------------------|---------------|-2-----------------------|-2----4----4-----2-----X----X----|
C#|-2----4------2----4------|-2------3------|-2----4------2----4------|-2----4----4-----2-----X----X----|
G#|------4------2----4------|-2------3------|------4------2----4------|---------------------------------|
D#|-------------------------|-0------1------|-------------------------|---------------------------------|

D#|-------------------------|---------------|-------------------------|---------------------------------|
A#|-------------------------|---------------|-------------------------|---------------------------------|
F#|-2-----------------------|---------------|-4-----------------------|-4----6----6-----4---------------|
C#|-2----4------2----4------|-2------3------|-4----6------4----6------|-4----6----6-----4-----X----X----|
G#|------4------2----4------|-2------3------|------6------4----6------|-----------------------X----X----|
D#|-------------------------|-0------1------|-------------------------|---------------------------------|

D#|-------------------------|---------------|-------------------------|---------------------------------|
A#|-------------------------|---------------|-------------------------|---------------------------------|
F#|-4-----------------------|---------------|-4-----------------------|-4----6----6-----4---------------|
C#|-4----6------4----6------|-4------5------|-4----6------4----6------|-4----6----6-----4-----X----X----|
G#|------6------4----6------|-4------5------|------6------4----6------|-----------------------X----X----|
D#|-------------------------|-2------3------|-------------------------|---------------------------------|

D#|-------------------------|---------------------------------|---------------------------------|
A#|-------------------------|-4----6----4---------------------|---------------------------------|
F#|-4-----------------------|-4----6----4---------------------|---------------------------------|
C#|-4----6------4----6------|-----------------5----6----7-----|-5-----------2-------------------|
G#|------6------4----6------|-----------------5----6----7-----|-5-----------2-------------------|
D#|-------------------------|-----------------3----4----5-----|-3------0----0----0----0----0----|

D#|-------------------------------------|---------------------------------|-------------------------------------|
A#|-------------------------------------|---------------------------------|-------------------------------------|
F#|-------------------------------------|---------------------------------|-------------------------------------|
C#|-2-------------------5----6----7-----|-5-----------2-------------------|-2-------------------5----6----7-----|
G#|-2-------------------5----6----7-----|-5-----------2-------------------|-2-------------------5----6----7-----|
D#|-0----0----0----0----3----4----5-----|-3------0----0----0----0----0----|-0----0----0----0----3----4----5-----|

D#|---------------------------------|-------------------------------------|---------------------------------|
A#|---------------------------------|-------------------------------------|---------------------------------|
F#|---------------------------------|-------------------------------------|---------------------------------|
C#|-5-----------2-------------------|-2-------------------5----6----7-----|-5-----------2-------------------|
G#|-5-----------2-------------------|-2-------------------5----6----7-----|-5-----------2-------------------|
D#|-3------0----0----0----0----0----|-0----0----0----0----3----4----5-----|-3------0----0----0----0----0----|

D#|-------------------------------------|-----------------------------|-----------------------------|
A#|-------------------------------------|-----------------------------|-----------------------------|
F#|-------------------------------------|-----------------------------|-----------------------------|
C#|-2-------------------5----6----7-----|-5-----5----5-----5----5-----|-7-----7----7-----7----7-----|
G#|-2-------------------5----6----7-----|-5-----5----5-----5----5-----|-7-----7----7-----7----7-----|
D#|-0----0----0----0----3----4----5-----|-3-----3----3-----3----3-----|-5-----5----5-----5----5-----|

D#|---------------------------------|-------------------------------------|-----------------------------|
A#|---------------------------------|-------------------------------------|-----------------------------|
F#|---------------------------------|-------------------------------------|-----------------------------|
C#|-5-----------2-------------------|-2-------------------5----6----7-----|-5-----5----5-----5----5-----|
G#|-5-----------2-------------------|-2-------------------5----6----7-----|-5-----5----5-----5----5-----|
D#|-3------0----0----0----0----0----|-0----0----0----0----3----4----5-----|-3-----3----3-----3----3-----|

D#|-----------------------------|---------------------------------|-------------------------------------|
A#|-----------------------------|---------------------------------|-------------------------------------|
F#|-----------------------------|---------------------------------|-------------------------------------|
C#|-7-----7----7-----7----7-----|-5-----------2-------------------|-2-------------------5----6----7-----|
G#|-7-----7----7-----7----7-----|-5-----------2-------------------|-2-------------------5----6----7-----|
D#|-5-----5----5-----5----5-----|-3------0----0----0----0----0----|-0----0----0----0----3----4----5-----|

D#|-----------------------------|-----------------------------|-----------------------------|
A#|-----------------------------|-----------------------------|-----------------------------|
F#|-----------------------------|-----------------------------|-5-----5----5-----5----5-----|
C#|-5-----5----5-----5----5-----|-7-----7----7-----7----7-----|-5-----5----5-----5----5-----|
G#|-5-----5----5-----5----5-----|-7-----7----7-----7----7-----|-3-----3----3-----3----3-----|
D#|-3-----3----3-----3----3-----|-5-----5----5-----5----5-----|-3-----3----3-----3----3-----|

D#|-----------------------------|-----------------------------|-----------------------------|
A#|-----------------------------|-----------------------------|-----------------------------|
F#|-7-----7----------7----0-----|-----------------------------|-----------------------------|
C#|-7-----7----7-----7----0-----|-5-----5----5-----5----5-----|-7-----7----7-----7----7-----|
G#|-5-----5----5-----5----0-----|-5-----5----5-----5----5-----|-7-----7----7-----7----7-----|
D#|-5-----5---------------------|-3-----3----3-----3----3-----|-5-----5----5-----5----5-----|

D#|-------------------------|------------------------|-------------------------|---------------------------------|
A#|-------------------------|------------------------|-------------------------|---------------------------------|
F#|-10----10----10----10----|-12---%----%-----%------|-2-----------------------|-2----4----4-----2-----X----X----|
C#|-10----10----10----10----|-12---%----%-----%------|-2----4------2----4------|-2----4----4-----2-----X----X----|
G#|-8-----8-----8-----8-----|-10---------------------|------4------2----4------|---------------------------------|
D#|-8-----8-----8-----8-----|------------------------|-------------------------|---------------------------------|

D#|-------------------------|---------------|-------------------------|---------------------------------|
A#|-------------------------|---------------|-------------------------|---------------------------------|
F#|-2-----------------------|---------------|-2-----------------------|-2----4----4-----2-----X----X----|
C#|-2----4------2----4------|-2------3------|-2----4------2----4------|-2----4----4-----2-----X----X----|
G#|------4------2----4------|-2------3------|------4------2----4------|---------------------------------|
D#|-------------------------|-0------1------|-------------------------|---------------------------------|

D#|-------------------------|---------------|-------------------------|---------------------------------|
A#|-------------------------|---------------|-------------------------|---------------------------------|
F#|-2-----------------------|---------------|-4-----------------------|-4----6----6-----4---------------|
C#|-2----4------2----4------|-2------3------|-4----6------4----6------|-4----6----6-----4-----X----X----|
G#|------4------2----4------|-2------3------|------6------4----6------|-----------------------X----X----|
D#|-------------------------|-0------1------|-------------------------|---------------------------------|

D#|-------------------------|---------------|-------------------------|---------------------------------|
A#|-------------------------|---------------|-------------------------|---------------------------------|
F#|-4-----------------------|---------------|-4-----------------------|-4----6----6-----4---------------|
C#|-4----6------4----6------|-4------5------|-4----6------4----6------|-4----6----6-----4-----X----X----|
G#|------6------4----6------|-4------5------|------6------4----6------|-----------------------X----X----|
D#|-------------------------|-2------3------|-------------------------|---------------------------------|

D#|-------------------------|---------------------------------|---------------------------------|
A#|-------------------------|-4----6----4---------------------|---------------------------------|
F#|-4-----------------------|-4----6----4---------------------|---------------------------------|
C#|-4----6------4----6------|-----------------5----6----7-----|-5-----------2-------------------|
G#|------6------4----6------|-----------------5----6----7-----|-5-----------2-------------------|
D#|-------------------------|-----------------3----4----5-----|-3------0----0----0----0----0----|

D#|-------------------------------------|---------------------------------|-------------------------------------|
A#|-------------------------------------|---------------------------------|-------------------------------------|
F#|-------------------------------------|---------------------------------|-------------------------------------|
C#|-2-------------------5----6----7-----|-5-----------2-------------------|-2-------------------5----6----7-----|
G#|-2-------------------5----6----7-----|-5-----------2-------------------|-2-------------------5----6----7-----|
D#|-0----0----0----0----3----4----5-----|-3------0----0----0----0----0----|-0----0----0----0----3----4----5-----|

D#|---------------------------------|-------------------------------------|---------------------------------|
A#|---------------------------------|-------------------------------------|---------------------------------|
F#|---------------------------------|-------------------------------------|---------------------------------|
C#|-5-----------2-------------------|-2-------------------5----6----7-----|-5-----------2-------------------|
G#|-5-----------2-------------------|-2-------------------5----6----7-----|-5-----------2-------------------|
D#|-3------0----0----0----0----0----|-0----0----0----0----3----4----5-----|-3------0----0----0----0----0----|

D#|-------------------------------------|---------------------------------|-------------------------------------|
A#|-------------------------------------|---------------------------------|-------------------------------------|
F#|-------------------------------------|---------------------------------|-------------------------------------|
C#|-2-------------------5----6----7-----|-5-----------2-------------------|-2-------------------5----6----7-----|
G#|-2-------------------5----6----7-----|-5-----------2-------------------|-2-------------------5----6----7-----|
D#|-0----0----0----0----3----4----5-----|-3------0----0----0----0----0----|-0----0----0----0----3----4----5-----|

D#|---------------------------------|-------------------------------------|---------------------------------|
A#|---------------------------------|-------------------------------------|---------------------------------|
F#|---------------------------------|-------------------------------------|---------------------------------|
C#|-5-----------2-------------------|-2-------------------5----6----7-----|-5-----------2-------------------|
G#|-5-----------2-------------------|-2-------------------5----6----7-----|-5-----------2-------------------|
D#|-3------0----0----0----0----0----|-0----0----0----0----3----4----5-----|-3------0----0----0----0----0----|

D#|-------------------------------------|---------------------------------|-------------------------------------|
A#|-------------------------------------|---------------------------------|-------------------------------------|
F#|-------------------------------------|---------------------------------|-------------------------------------|
C#|-2-------------------5----6----7-----|-5-----------2-------------------|-2-------------------5----6----7-----|
G#|-2-------------------5----6----7-----|-5-----------2-------------------|-2-------------------5----6----7-----|
D#|-0----0----0----0----3----4----5-----|-3------0----0----0----0----0----|-0----0----0----0----3----4----5-----|

D#|--------------------------------------------------------|---------------------------------------------------------------------|
A#|--------------------------------------------------------|---------------------------------------------------------------------|
F#|--------------------------------------------------------|---------------------------------------------------------------------|
C#|-5------5--5--5--5--5--5--5--5--5--5--5--5--5--5--5--5--|-5--5--5--5--5--5--5--5--5--5--5--5--5--5--5--5--5----5----5----5----|
G#|-5------5--5--5--5--5--5--5--5--5--5--5--5--5--5--5--5--|-5--5--5--5--5--5--5--5--5--5--5--5--5--5--5--5--5----5----5----5----|
D#|-3------3--3--3--3--3--3--3--3--3--3--3--3--3--3--3--3--|-3--3--3--3--3--3--3--3--3--3--3--3--3--3--3--3--3----3----3----3----|

D#|---------------|------------------------|---------------------------------|-------------------------------------|
A#|---------------|------------------------|---------------------------------|-------------------------------------|
F#|---------------|------------------------|---------------------------------|-------------------------------------|
C#|-5------5------|-5------5----6----7-----|-5-----------2-------------------|-2-------------------5----6----7-----|
G#|-5------5------|-5------5----6----7-----|-5-----------2-------------------|-2-------------------5----6----7-----|
D#|-3------3------|-3------3----4----5-----|-3------0----0----0----0----0----|-0----0----0----0----3----4----5-----|

D#|---------------------------------|-------------------------------------|---------------------------------|
A#|---------------------------------|-------------------------------------|---------------------------------|
F#|---------------------------------|-------------------------------------|---------------------------------|
C#|-5-----------2-------------------|-2-------------------5----6----7-----|-5-----------2-------------------|
G#|-5-----------2-------------------|-2-------------------5----6----7-----|-5-----------2-------------------|
D#|-3------0----0----0----0----0----|-0----0----0----0----3----4----5-----|-3------0----0----0----0----0----|

D#|-------------------------------------|---------------------------------|-------------------------------------|
A#|-------------------------------------|---------------------------------|-------------------------------------|
F#|-------------------------------------|---------------------------------|-------------------------------------|
C#|-2-------------------5----6----7-----|-5-----------2-------------------|-2-------------------5----6----7-----|
G#|-2-------------------5----6----7-----|-5-----------2-------------------|-2-------------------5----6----7-----|
D#|-0----0----0----0----3----4----5-----|-3------0----0----0----0----0----|-0----0----0----0----3----4----5-----|

D#|---------------------------------|-------------------------------------|---------------------------------|
A#|---------------------------------|-------------------------------------|---------------------------------|
F#|---------------------------------|-------------------------------------|---------------------------------|
C#|-5-----------2-------------------|-2-------------------5----6----7-----|-5-----------2-------------------|
G#|-5-----------2-------------------|-2-------------------5----6----7-----|-5-----------2-------------------|
D#|-3------0----0----0----0----0----|-0----0----0----0----3----4----5-----|-3------0----0----0----0----0----|

D#|-------------------------------------|---------------------------------|-------------------------------------|
A#|-------------------------------------|---------------------------------|-------------------------------------|
F#|-------------------------------------|---------------------------------|-------------------------------------|
C#|-2-------------------5----6----7-----|-5-----------2-------------------|-2-------------------5----6----7-----|
G#|-2-------------------5----6----7-----|-5-----------2-------------------|-2-------------------5----6----7-----|
D#|-0----0----0----0----3----4----5-----|-3------0----0----0----0----0----|-0----0----0----0----3----4----5-----|

D#|---------------------------------|---------------------------------|---------------------------------|
A#|---------------------------------|---------------------------------|---------------------------------|
F#|----------------------------0----|-%----0----%----0----%----0------|---------------------------------|
C#|-5-----------2--------------0----|-%----0----%----0----%----0------|-5-----------2-------------------|
G#|-5-----------2-------------------|---------------------------------|-5-----------2-------------------|
D#|-3------0----0----0----0---------|---------------------------------|-3------0----0----0----0----0----|

D#|-------------------------------------|---------------------------------|-------------------------------------|
A#|-------------------------------------|---------------------------------|-------------------------------------|
F#|-------------------------------------|---------------------------------|-------------------------------------|
C#|-2-------------------5----6----7-----|-5-----------2-------------------|-2-------------------5----6----7-----|
G#|-2-------------------5----6----7-----|-5-----------2-------------------|-2-------------------5----6----7-----|
D#|-0----0----0----0----3----4----5-----|-3------0----0----0----0----0----|-0----0----0----0----3----4----5-----|

D#|---------------------------------|-------------------------------------|---------------------------------|
A#|---------------------------------|-------------------------------------|---------------------------------|
F#|---------------------------------|-------------------------------------|---------------------------------|
C#|-5-----------2-------------------|-2-------------------5----6----7-----|-5-----------2-------------------|
G#|-5-----------2-------------------|-2-------------------5----6----7-----|-5-----------2-------------------|
D#|-3------0----0----0----0----0----|-0----0----0----0----3----4----5-----|-3------0----0----0----0----0----|

D#|-------------------------------------|---------------------------------|-------------------------------------|
A#|-------------------------------------|---------------------------------|-------------------------------------|
F#|-------------------------------------|---------------------------------|-------------------------------------|
C#|-2-------------------5----6----7-----|-5-----------2-------------------|-2-------------------5----6----7-----|
G#|-2-------------------5----6----7-----|-5-----------2-------------------|-2-------------------5----6----7-----|
D#|-0----0----0----0----3----4----5-----|-3------0----0----0----0----0----|-0----0----0----0----3----4----5-----|

D#|---------------------------------|-------------------------------------|---------------------------------|
A#|---------------------------------|-------------------------------------|---------------------------------|
F#|---------------------------------|-------------------------------------|---------------------------------|
C#|-5-----------2-------------------|-2-------------------5----6----7-----|-5-----------2-------------------|
G#|-5-----------2-------------------|-2-------------------5----6----7-----|-5-----------2-------------------|
D#|-3------0----0----0----0----0----|-0----0----0----0----3----4----5-----|-3------0----0----0----0----0----|

D#|-------------------------------------|---------------------------------|-------------------------------------|
A#|-------------------------------------|---------------------------------|-------------------------------------|
F#|-------------------------------------|---------------------------------|-------------------------------------|
C#|-2-------------------5----6----7-----|-5-----------2-------------------|---------------------5----6----7-----|
G#|-2-------------------5----6----7-----|-5-----------2-------------------|---------------------5----6----7-----|
D#|-0----0----0----0----3----4----5-----|-3------0----0----0----3----3----|-3----3----3----3----3----4----5-----|

D#|---------------------------------|-------------------------------------|---------------------------------|
A#|---------------------------------|-------------------------------------|---------------------------------|
F#|---------------------------------|-------------------------------------|---------------------------------|
C#|-5-----------2-------------------|-2-------------------5----6----7-----|-5-----------2-------------------|
G#|-5-----------2-------------------|-2-------------------5----6----7-----|-5-----------2-------------------|
D#|-3------0----0----0----0----0----|-0----0----0----0----3----4----5-----|-3------0----0----0----0----0----|

D#|-------------------------------------|---------------------------------|-------------------------------------|
A#|-------------------------------------|---------------------------------|-------------------------------------|
F#|-------------------------------------|---------------------------------|-------------------------------------|
C#|-2-------------------5----6----7-----|-5-----------2-------------------|-2-------------------5----6----7-----|
G#|-2-------------------5----6----7-----|-5-----------2-------------------|-2-------------------5----6----7-----|
D#|-0----0----0----0----3----4----5-----|-3------0----0----0----0----0----|-0----0----0----0----3----4----5-----|

D#|---------------------------------|-------------------------------------|---------------|
A#|---------------------------------|-------------------------------------|---------------|
F#|---------------------------------|-------------------------------------|---------------|
C#|-5-----------2-------------------|-2-------------------5----6----7-----|-5-------5-----|
G#|-5-----------2-------------------|-2-------------------5----6----7-----|-5-------5-----|
D#|-3------0----0----0----0----0----|-0----0----0----0----3----4----5-----|-3-------3-----|

D#|--------------------|---------------|---------|--------------------|------------------------|
A#|--------------------|---------------|---------|--------------------|------------------------|
F#|--------------------|---------------|---------|--------------------|------------------------|
C#|-5-----5------5-----|-5------5------|-5-------|-5------5----5------|-5------5----6----7-----|
G#|-5-----5------5-----|-5------5------|-5-------|-5------5----5------|-5------5----6----7-----|
D#|-3-----3------3-----|-3------3------|-3-------|-3------3----3------|-3------3----4----5-----|

D#|--------------------|---------|
A#|--------------------|---------|
F#|--------------%-----|-%-------|
C#|-5------2-----%-----|-%-------|
G#|-5------2-----------|---------|
D#|-3------0-----------|---------|
Metallica - Better Than You
Metallica - Better Than You.gp3