Metallica - Black Album Part 1

Metallica



Title: Black Album
Album: Black
Artist: Metallica
Author: 

Track 1: Guitar
E|------|-------------------------------------|-------------------------------------|
B|------|-------------------------------------|-------------------------------------|
G|------|-------------------------------------|-------------------------------------|
D|------|-----------5-------------------------|-----------5-------------------------|
A|------|------7--------------------7---------|------7--------------------7---------|
E|-0----|-0--------------6----5----------0----|-0--------------6----5----------0----|

E|-------------------------------------|-------------------------------------|-------------------------------------|
B|-------------------------------------|-------------------------------------|-------------------------------------|
G|-------------------------------------|-------------------------------------|-------------------------------------|
D|-----------5-------------------------|-----------5-------------------------|-----------5-------------------------|
A|------7--------------------7---------|------7--------------------7---------|------7--------------------7---------|
E|-0--------------6----5----------0----|-0--------------6----5----------0----|-0--------------6----5----------0----|

E|-------------------------------------------|-------------------------------------------|
B|-------------------------------------------|-------------------------------------------|
G|-------------------------------------------|-------------------------------------------|
D|--------------5----------------------------|--------------5----------------------------|
A|---------7--------------------7------------|---------7--------------------7------------|
E|-0----0------------6----5----------0----0--|-0----0------------6----5----------0----0--|

E|-------------------------------------------|-------------------------------------------|
B|-------------------------------------------|-------------------------------------------|
G|-------------------------------------------|-------------------------------------------|
D|--------------5----------------------------|--------------5----------------------------|
A|---------7--------------------7------------|---------7--------------------7------------|
E|-0----0------------6----5----------0----0--|-0----0------------6----5----------0----0--|

E|-------------------------------------|-------------------------------------|-------------------------------------|
B|-------------------------------------|-------------------------------------|-------------------------------------|
G|-------------------------------------|-------------------------------------|-------------------------------------|
D|-----------5-------------------------|-----------5-------------------------|-----------5-------------------------|
A|------7--------------------7---------|------7--------------------7---------|------7--------------------7----2----|
E|-0--------------6----5----------0----|-0--------------6----5----------0----|-0--------------6----5----------0----|

E|---------|---------|---------|---------|---------|---------|---------|---------|---------|
B|---------|---------|---------|---------|---------|---------|---------|---------|---------|
G|-%-------|-%-------|-%-------|-%-------|-%-------|-%-------|-%-------|-%-------|-%-------|
D|-%-------|-%-------|-%-------|-%-------|-%-------|-%-------|-%-------|-%-------|-%-------|
A|---------|---------|---------|---------|---------|---------|---------|---------|---------|
E|---------|---------|---------|---------|---------|---------|---------|---------|---------|

E|---------|---------|---------|---------|---------|---------|---------|---------|---------|
B|---------|---------|---------|---------|---------|---------|---------|---------|---------|
G|-%-------|-%-------|-%-------|-%-------|-%-------|-%-------|-%-------|-%-------|-%-------|
D|-%-------|-%-------|-%-------|-%-------|-%-------|-%-------|-%-------|-%-------|-%-------|
A|---------|---------|---------|---------|---------|---------|---------|---------|---------|
E|---------|---------|---------|---------|---------|---------|---------|---------|---------|

E|---------|---------|---------|---------|---------|---------|---------|---------|---------|
B|---------|---------|---------|---------|---------|---------|---------|---------|---------|
G|-%-------|-%-------|-%-------|-%-------|-%-------|-%-------|-%-------|-%-------|-%-------|
D|-%-------|-%-------|-%-------|-%-------|-%-------|-%-------|-%-------|-%-------|-%-------|
A|---------|---------|---------|---------|---------|---------|---------|---------|---------|
E|---------|---------|---------|---------|---------|---------|---------|---------|---------|

E|---------|---------|---------|---------|---------|---------|---------|---------|---------|
B|---------|---------|---------|---------|---------|---------|---------|---------|---------|
G|-%-------|-%-------|-%-------|-%-------|-%-------|-%-------|-%-------|-%-------|-%-------|
D|-%-------|-%-------|-%-------|-%-------|-%-------|-%-------|-%-------|-%-------|-%-------|
A|---------|---------|---------|---------|---------|---------|---------|---------|---------|
E|---------|---------|---------|---------|---------|---------|---------|---------|---------|

E|---------|---------|---------|---------|---------|---------|---------|---------|---------|
B|---------|---------|---------|---------|---------|---------|---------|---------|---------|
G|-%-------|-%-------|-%-------|-%-------|-%-------|-%-------|-%-------|-%-------|-%-------|
D|-%-------|-%-------|-%-------|-%-------|-%-------|-%-------|-%-------|-%-------|-%-------|
A|---------|---------|---------|---------|---------|---------|---------|---------|---------|
E|---------|---------|---------|---------|---------|---------|---------|---------|---------|

E|---------|---------|---------|---------|---------|---------|---------|---------|---------|
B|---------|---------|---------|---------|---------|---------|---------|---------|---------|
G|-%-------|-%-------|-%-------|-%-------|-%-------|-%-------|-%-------|-%-------|-%-------|
D|-%-------|-%-------|-%-------|-%-------|-%-------|-%-------|-%-------|-%-------|-%-------|
A|---------|---------|---------|---------|---------|---------|---------|---------|---------|
E|---------|---------|---------|---------|---------|---------|---------|---------|---------|

E|---------|---------|---------|---------|---------|---------|---------|---------|---------|
B|---------|---------|---------|---------|---------|---------|---------|---------|---------|
G|-%-------|-%-------|-%-------|-%-------|-%-------|-%-------|-%-------|-%-------|-%-------|
D|-%-------|-%-------|-%-------|-%-------|-%-------|-%-------|-%-------|-%-------|-%-------|
A|---------|---------|---------|---------|---------|---------|---------|---------|---------|
E|---------|---------|---------|---------|---------|---------|---------|---------|---------|

E|---------|---------|---------|---------|---------|---------|---------|---------|---------|
B|---------|---------|---------|---------|---------|---------|---------|---------|---------|
G|-%-------|-%-------|-%-------|-%-------|-%-------|-%-------|-%-------|-%-------|-%-------|
D|-%-------|-%-------|-%-------|-%-------|-%-------|-%-------|-%-------|-%-------|-%-------|
A|---------|---------|---------|---------|---------|---------|---------|---------|---------|
E|---------|---------|---------|---------|---------|---------|---------|---------|---------|

E|---------|---------|---------|---------|---------|---------|---------|---------|---------|
B|---------|---------|---------|---------|---------|---------|---------|---------|---------|
G|-%-------|-%-------|-%-------|-%-------|-%-------|-%-------|-%-------|-%-------|-%-------|
D|-%-------|-%-------|-%-------|-%-------|-%-------|-%-------|-%-------|-%-------|-%-------|
A|---------|---------|---------|---------|---------|---------|---------|---------|---------|
E|---------|---------|---------|---------|---------|---------|---------|---------|---------|

E|---------|---------|---------|---------|---------|---------|---------|---------|---------|
B|---------|---------|---------|---------|---------|---------|---------|---------|---------|
G|-%-------|-%-------|-%-------|-%-------|-%-------|-%-------|-%-------|-%-------|-%-------|
D|-%-------|-%-------|-%-------|-%-------|-%-------|-%-------|-%-------|-%-------|-%-------|
A|---------|---------|---------|---------|---------|---------|---------|---------|---------|
E|---------|---------|---------|---------|---------|---------|---------|---------|---------|

E|---------|---------|---------|---------|---------|---------|---------|---------|---------|
B|---------|---------|---------|---------|---------|---------|---------|---------|---------|
G|-%-------|-%-------|-%-------|-%-------|-%-------|-%-------|-%-------|-%-------|-%-------|
D|-%-------|-%-------|-%-------|-%-------|-%-------|-%-------|-%-------|-%-------|-%-------|
A|---------|---------|---------|---------|---------|---------|---------|---------|---------|
E|---------|---------|---------|---------|---------|---------|---------|---------|---------|

E|---------|---------|---------|---------|---------|---------|---------|---------|---------|
B|---------|---------|---------|---------|---------|---------|---------|---------|---------|
G|-%-------|-%-------|-%-------|-%-------|-%-------|-%-------|-%-------|-%-------|-%-------|
D|-%-------|-%-------|-%-------|-%-------|-%-------|-%-------|-%-------|-%-------|-%-------|
A|---------|---------|---------|---------|---------|---------|---------|---------|---------|
E|---------|---------|---------|---------|---------|---------|---------|---------|---------|

E|---------|---------|---------|---------|---------|---------|---------|---------|---------|
B|---------|---------|---------|---------|---------|---------|---------|---------|---------|
G|-%-------|-%-------|-%-------|-%-------|-%-------|-%-------|-%-------|-%-------|-%-------|
D|-%-------|-%-------|-%-------|-%-------|-%-------|-%-------|-%-------|-%-------|-%-------|
A|---------|---------|---------|---------|---------|---------|---------|---------|---------|
E|---------|---------|---------|---------|---------|---------|---------|---------|---------|

E|---------|---------|---------|---------|---------|---------|---------|---------|---------|
B|---------|---------|---------|---------|---------|---------|---------|---------|---------|
G|-%-------|-%-------|-%-------|-%-------|-%-------|-%-------|-%-------|-%-------|-%-------|
D|-%-------|-%-------|-%-------|-%-------|-%-------|-%-------|-%-------|-%-------|-%-------|
A|---------|---------|---------|---------|---------|---------|---------|---------|---------|
E|---------|---------|---------|---------|---------|---------|---------|---------|---------|

E|---------|---------|---------|---------|---------|---------|---------|---------|---------|
B|---------|---------|---------|---------|---------|---------|---------|---------|---------|
G|-%-------|-%-------|-%-------|-%-------|-%-------|-%-------|-%-------|-%-------|-%-------|
D|-%-------|-%-------|-%-------|-%-------|-%-------|-%-------|-%-------|-%-------|-%-------|
A|---------|---------|---------|---------|---------|---------|---------|---------|---------|
E|---------|---------|---------|---------|---------|---------|---------|---------|---------|

E|---------|---------|---------|---------|---------|---------|---------|---------|---------|
B|---------|---------|---------|---------|---------|---------|---------|---------|---------|
G|-%-------|-%-------|-%-------|-%-------|-%-------|-%-------|-%-------|-%-------|-%-------|
D|-%-------|-%-------|-%-------|-%-------|-%-------|-%-------|-%-------|-%-------|-%-------|
A|---------|---------|---------|---------|---------|---------|---------|---------|---------|
E|---------|---------|---------|---------|---------|---------|---------|---------|---------|

E|---------|---------|---------|---------|---------|---------|---------|---------|---------|
B|---------|---------|---------|---------|---------|---------|---------|---------|---------|
G|-%-------|-%-------|-%-------|-%-------|-%-------|-%-------|-%-------|-%-------|-%-------|
D|-%-------|-%-------|-%-------|-%-------|-%-------|-%-------|-%-------|-%-------|-%-------|
A|---------|---------|---------|---------|---------|---------|---------|---------|---------|
E|---------|---------|---------|---------|---------|---------|---------|---------|---------|

E|---------|---------|---------|---------|---------|---------|---------|---------|---------|
B|---------|---------|---------|---------|---------|---------|---------|---------|---------|
G|-%-------|-%-------|-%-------|-%-------|-%-------|-%-------|-%-------|-%-------|-%-------|
D|-%-------|-%-------|-%-------|-%-------|-%-------|-%-------|-%-------|-%-------|-%-------|
A|---------|---------|---------|---------|---------|---------|---------|---------|---------|
E|---------|---------|---------|---------|---------|---------|---------|---------|---------|

E|---------|---------|--------|---------|---------|---------|---------|---------|---------|
B|---------|---------|--------|---------|---------|---------|---------|---------|---------|
G|-%-------|-%-------|-%------|-%-------|-%-------|-%-------|-%-------|-%-------|-%-------|
D|-%-------|-%-------|-%------|-%-------|-%-------|-%-------|-%-------|-%-------|-%-------|
A|---------|---------|--------|---------|---------|---------|---------|---------|---------|
E|---------|---------|--------|---------|---------|---------|---------|---------|---------|

E|---------|---------|---------|---------|---------|---------|---------|---------|---------|
B|---------|---------|---------|---------|---------|---------|---------|---------|---------|
G|-%-------|-%-------|-%-------|-%-------|-%-------|-%-------|-%-------|-%-------|-%-------|
D|-%-------|-%-------|-%-------|-%-------|-%-------|-%-------|-%-------|-%-------|-%-------|
A|---------|---------|---------|---------|---------|---------|---------|---------|---------|
E|---------|---------|---------|---------|---------|---------|---------|---------|---------|

E|---------|---------|---------|---------|---------|---------|---------|---------|---------|
B|---------|---------|---------|---------|---------|---------|---------|---------|---------|
G|-%-------|-%-------|-%-------|-%-------|-%-------|-%-------|-%-------|-%-------|-%-------|
D|-%-------|-%-------|-%-------|-%-------|-%-------|-%-------|-%-------|-%-------|-%-------|
A|---------|---------|---------|---------|---------|---------|---------|---------|---------|
E|---------|---------|---------|---------|---------|---------|---------|---------|---------|

E|---------|---------|---------|---------|---------|---------|---------|---------|---------|
B|---------|---------|---------|---------|---------|---------|---------|---------|---------|
G|-%-------|-%-------|-%-------|-%-------|-%-------|-%-------|-%-------|-%-------|-%-------|
D|-%-------|-%-------|-%-------|-%-------|-%-------|-%-------|-%-------|-%-------|-%-------|
A|---------|---------|---------|---------|---------|---------|---------|---------|---------|
E|---------|---------|---------|---------|---------|---------|---------|---------|---------|

E|---------|---------|---------|---------|---------|---------|---------|---------|---------|
B|---------|---------|---------|---------|---------|---------|---------|---------|---------|
G|-%-------|-%-------|-%-------|-%-------|-%-------|-%-------|-%-------|-%-------|-%-------|
D|-%-------|-%-------|-%-------|-%-------|-%-------|-%-------|-%-------|-%-------|-%-------|
A|---------|---------|---------|---------|---------|---------|---------|---------|---------|
E|---------|---------|---------|---------|---------|---------|---------|---------|---------|

E|---------|---------|---------|---------|---------|---------|---------|---------|---------|
B|---------|---------|---------|---------|---------|---------|---------|---------|---------|
G|-%-------|-%-------|-%-------|-%-------|-%-------|-%-------|-%-------|-%-------|-%-------|
D|-%-------|-%-------|-%-------|-%-------|-%-------|-%-------|-%-------|-%-------|-%-------|
A|---------|---------|---------|---------|---------|---------|---------|---------|---------|
E|---------|---------|---------|---------|---------|---------|---------|---------|---------|

E|---------|---------|---------|---------|---------|---------|---------|---------|---------|
B|---------|---------|---------|---------|---------|---------|---------|---------|---------|
G|-%-------|-%-------|-%-------|-%-------|-%-------|-%-------|-%-------|-%-------|-%-------|
D|-%-------|-%-------|-%-------|-%-------|-%-------|-%-------|-%-------|-%-------|-%-------|
A|---------|---------|---------|---------|---------|---------|---------|---------|---------|
E|---------|---------|---------|---------|---------|---------|---------|---------|---------|

E|---------|---------|--------|---------|---------|---------|---------|---------|---------|
B|---------|---------|--------|---------|---------|---------|---------|---------|---------|
G|-%-------|-%-------|-%------|-%-------|-%-------|-%-------|-%-------|-%-------|-%-------|
D|-%-------|-%-------|-%------|-%-------|-%-------|-%-------|-%-------|-%-------|-%-------|
A|---------|---------|--------|---------|---------|---------|---------|---------|---------|
E|---------|---------|--------|---------|---------|---------|---------|---------|---------|

E|---------|---------|---------|---------|---------|---------|---------|---------|---------|
B|---------|---------|---------|---------|---------|---------|---------|---------|---------|
G|-%-------|-%-------|-%-------|-%-------|-%-------|-%-------|-%-------|-%-------|-%-------|
D|-%-------|-%-------|-%-------|-%-------|-%-------|-%-------|-%-------|-%-------|-%-------|
A|---------|---------|---------|---------|---------|---------|---------|---------|---------|
E|---------|---------|---------|---------|---------|---------|---------|---------|---------|

E|---------|---------|---------|---------|---------|---------|---------|---------|---------|
B|---------|---------|---------|---------|---------|---------|---------|---------|---------|
G|-%-------|-%-------|-%-------|-%-------|-%-------|-%-------|-%-------|-%-------|-%-------|
D|-%-------|-%-------|-%-------|-%-------|-%-------|-%-------|-%-------|-%-------|-%-------|
A|---------|---------|---------|---------|---------|---------|---------|---------|---------|
E|---------|---------|---------|---------|---------|---------|---------|---------|---------|

E|---------|---------|---------|---------|---------|---------|---------|---------|---------|
B|---------|---------|---------|---------|---------|---------|---------|---------|---------|
G|-%-------|-%-------|-%-------|-%-------|-%-------|-%-------|-%-------|-%-------|-%-------|
D|-%-------|-%-------|-%-------|-%-------|-%-------|-%-------|-%-------|-%-------|-%-------|
A|---------|---------|---------|---------|---------|---------|---------|---------|---------|
E|---------|---------|---------|---------|---------|---------|---------|---------|---------|

E|---------|---------|---------|---------|---------|---------|---------|---------|---------|
B|---------|---------|---------|---------|---------|---------|---------|---------|---------|
G|-%-------|-%-------|-%-------|-%-------|-%-------|-%-------|-%-------|-%-------|-%-------|
D|-%-------|-%-------|-%-------|-%-------|-%-------|-%-------|-%-------|-%-------|-%-------|
A|---------|---------|---------|---------|---------|---------|---------|---------|---------|
E|---------|---------|---------|---------|---------|---------|---------|---------|---------|

E|---------|---------|---------|---------|---------|---------|---------|---------|---------|
B|---------|---------|---------|---------|---------|---------|---------|---------|---------|
G|-%-------|-%-------|-%-------|-%-------|-%-------|-%-------|-%-------|-%-------|-%-------|
D|-%-------|-%-------|-%-------|-%-------|-%-------|-%-------|-%-------|-%-------|-%-------|
A|---------|---------|---------|---------|---------|---------|---------|---------|---------|
E|---------|---------|---------|---------|---------|---------|---------|---------|---------|

E|---------|---------|---------|---------|---------|---------|---------|---------|---------|
B|---------|---------|---------|---------|---------|---------|---------|---------|---------|
G|-%-------|-%-------|-%-------|-%-------|-%-------|-%-------|-%-------|-%-------|-%-------|
D|-%-------|-%-------|-%-------|-%-------|-%-------|-%-------|-%-------|-%-------|-%-------|
A|---------|---------|---------|---------|---------|---------|---------|---------|---------|
E|---------|---------|---------|---------|---------|---------|---------|---------|---------|

E|---------|---------|---------|---------|---------|---------|---------|---------|---------|
B|---------|---------|---------|---------|---------|---------|---------|---------|---------|
G|-%-------|-%-------|-%-------|-%-------|-%-------|-%-------|-%-------|-%-------|-%-------|
D|-%-------|-%-------|-%-------|-%-------|-%-------|-%-------|-%-------|-%-------|-%-------|
A|---------|---------|---------|---------|---------|---------|---------|---------|---------|
E|---------|---------|---------|---------|---------|---------|---------|---------|---------|

E|---------|---------|---------|---------|---------|---------|---------|---------|---------|
B|---------|---------|---------|---------|---------|---------|---------|---------|---------|
G|-%-------|-%-------|-%-------|-%-------|-%-------|-%-------|-%-------|-%-------|-%-------|
D|-%-------|-%-------|-%-------|-%-------|-%-------|-%-------|-%-------|-%-------|-%-------|
A|---------|---------|---------|---------|---------|---------|---------|---------|---------|
E|---------|---------|---------|---------|---------|---------|---------|---------|---------|

E|---------|---------|---------|---------|---------|---------|---------|---------|---------|
B|---------|---------|---------|---------|---------|---------|---------|---------|---------|
G|-%-------|-%-------|-%-------|-%-------|-%-------|-%-------|-%-------|-%-------|-%-------|
D|-%-------|-%-------|-%-------|-%-------|-%-------|-%-------|-%-------|-%-------|-%-------|
A|---------|---------|---------|---------|---------|---------|---------|---------|---------|
E|---------|---------|---------|---------|---------|---------|---------|---------|---------|

E|---------|---------|---------|---------|---------|---------|---------|---------|---------|
B|---------|---------|---------|---------|---------|---------|---------|---------|---------|
G|-%-------|-%-------|-%-------|-%-------|-%-------|-%-------|-%-------|-%-------|-%-------|
D|-%-------|-%-------|-%-------|-%-------|-%-------|-%-------|-%-------|-%-------|-%-------|
A|---------|---------|---------|---------|---------|---------|---------|---------|---------|
E|---------|---------|---------|---------|---------|---------|---------|---------|---------|

E|---------|---------|---------|---------|---------|---------|---------|---------|---------|
B|---------|---------|---------|---------|---------|---------|---------|---------|---------|
G|-%-------|-%-------|-%-------|-%-------|-%-------|-%-------|-%-------|-%-------|-%-------|
D|-%-------|-%-------|-%-------|-%-------|-%-------|-%-------|-%-------|-%-------|-%-------|
A|---------|---------|---------|---------|---------|---------|---------|---------|---------|
E|---------|---------|---------|---------|---------|---------|---------|---------|---------|

E|---------|---------|---------|---------|---------|---------|---------|---------|---------|
B|---------|---------|---------|---------|---------|---------|---------|---------|---------|
G|-%-------|-%-------|-%-------|-%-------|-%-------|-%-------|-%-------|-%-------|-%-------|
D|-%-------|-%-------|-%-------|-%-------|-%-------|-%-------|-%-------|-%-------|-%-------|
A|---------|---------|---------|---------|---------|---------|---------|---------|---------|
E|---------|---------|---------|---------|---------|---------|---------|---------|---------|

E|---------|---------|---------|---------|---------|---------|---------|---------|---------|
B|---------|---------|---------|---------|---------|---------|---------|---------|---------|
G|-%-------|-%-------|-%-------|-%-------|-%-------|-%-------|-%-------|-%-------|-%-------|
D|-%-------|-%-------|-%-------|-%-------|-%-------|-%-------|-%-------|-%-------|-%-------|
A|---------|---------|---------|---------|---------|---------|---------|---------|---------|
E|---------|---------|---------|---------|---------|---------|---------|---------|---------|

E|---------|---------|---------|---------|---------|---------|---------|---------|---------|
B|---------|---------|---------|---------|---------|---------|---------|---------|---------|
G|-%-------|-%-------|-%-------|-%-------|-%-------|-%-------|-%-------|-%-------|-%-------|
D|-%-------|-%-------|-%-------|-%-------|-%-------|-%-------|-%-------|-%-------|-%-------|
A|---------|---------|---------|---------|---------|---------|---------|---------|---------|
E|---------|---------|---------|---------|---------|---------|---------|---------|---------|

E|---------|---------|---------|---------|---------|---------|---------|---------|---------|
B|---------|---------|---------|---------|---------|---------|---------|---------|---------|
G|-%-------|-%-------|-%-------|-%-------|-%-------|-%-------|-%-------|-%-------|-%-------|
D|-%-------|-%-------|-%-------|-%-------|-%-------|-%-------|-%-------|-%-------|-%-------|
A|---------|---------|---------|---------|---------|---------|---------|---------|---------|
E|---------|---------|---------|---------|---------|---------|---------|---------|---------|

E|---------|---------|---------|---------|---------|---------|---------|---------|---------|
B|---------|---------|---------|---------|---------|---------|---------|---------|---------|
G|-%-------|-%-------|-%-------|-%-------|-%-------|-%-------|-%-------|-%-------|-%-------|
D|-%-------|-%-------|-%-------|-%-------|-%-------|-%-------|-%-------|-%-------|-%-------|
A|---------|---------|---------|---------|---------|---------|---------|---------|---------|
E|---------|---------|---------|---------|---------|---------|---------|---------|---------|

E|---------|---------|---------|---------|---------|---------|---------|---------|---------|
B|---------|---------|---------|---------|---------|---------|---------|---------|---------|
G|-%-------|-%-------|-%-------|-%-------|-%-------|-%-------|-%-------|-%-------|-%-------|
D|-%-------|-%-------|-%-------|-%-------|-%-------|-%-------|-%-------|-%-------|-%-------|
A|---------|---------|---------|---------|---------|---------|---------|---------|---------|
E|---------|---------|---------|---------|---------|---------|---------|---------|---------|

E|---------|---------|--------|---------|---------|--------|---------|---------|---------|
B|---------|---------|--------|---------|---------|--------|---------|---------|---------|
G|-%-------|-%-------|-%------|-%-------|-%-------|-%------|-%-------|-%-------|-%-------|
D|-%-------|-%-------|-%------|-%-------|-%-------|-%------|-%-------|-%-------|-%-------|
A|---------|---------|--------|---------|---------|--------|---------|---------|---------|
E|---------|---------|--------|---------|---------|--------|---------|---------|---------|

E|---------|--------|---------|---------|---------|---------|---------|---------|---------|
B|---------|--------|---------|---------|---------|---------|---------|---------|---------|
G|-%-------|-%------|-%-------|-%-------|-%-------|-%-------|-%-------|-%-------|-%-------|
D|-%-------|-%------|-%-------|-%-------|-%-------|-%-------|-%-------|-%-------|-%-------|
A|---------|--------|---------|---------|---------|---------|---------|---------|---------|
E|---------|--------|---------|---------|---------|---------|---------|---------|---------|

E|---------|---------|---------|---------|---------|---------|---------|---------|---------|
B|---------|---------|---------|---------|---------|---------|---------|---------|---------|
G|-%-------|-%-------|-%-------|-%-------|-%-------|-%-------|-%-------|-%-------|-%-------|
D|-%-------|-%-------|-%-------|-%-------|-%-------|-%-------|-%-------|-%-------|-%-------|
A|---------|---------|---------|---------|---------|---------|---------|---------|---------|
E|---------|---------|---------|---------|---------|---------|---------|---------|---------|

E|---------|---------|---------|---------|---------|---------|---------|---------|---------|
B|---------|---------|---------|---------|---------|---------|---------|---------|---------|
G|-%-------|-%-------|-%-------|-%-------|-%-------|-%-------|-%-------|-%-------|-%-------|
D|-%-------|-%-------|-%-------|-%-------|-%-------|-%-------|-%-------|-%-------|-%-------|
A|---------|---------|---------|---------|---------|---------|---------|---------|---------|
E|---------|---------|---------|---------|---------|---------|---------|---------|---------|

E|---------|---------|---------|---------|---------|---------|---------|---------|---------|
B|---------|---------|---------|---------|---------|---------|---------|---------|---------|
G|-%-------|-%-------|-%-------|-%-------|-%-------|-%-------|-%-------|-%-------|-%-------|
D|-%-------|-%-------|-%-------|-%-------|-%-------|-%-------|-%-------|-%-------|-%-------|
A|---------|---------|---------|---------|---------|---------|---------|---------|---------|
E|---------|---------|---------|---------|---------|---------|---------|---------|---------|

E|---------|---------|---------|---------|---------|---------|---------|---------|---------|
B|---------|---------|---------|---------|---------|---------|---------|---------|---------|
G|-%-------|-%-------|-%-------|-%-------|-%-------|-%-------|-%-------|-%-------|-%-------|
D|-%-------|-%-------|-%-------|-%-------|-%-------|-%-------|-%-------|-%-------|-%-------|
A|---------|---------|---------|---------|---------|---------|---------|---------|---------|
E|---------|---------|---------|---------|---------|---------|---------|---------|---------|

E|---------|---------|-----------------|--------------------------------------------------------------|
B|---------|---------|-----------------|-0------------0-----------0-----------0-----------1-----------|
G|-%-------|-%-------|-%-------%-------|------2-----------2-----------2-----------2-----------2-------|
D|-%-------|-%-------|-%-------%-------|----------2-----------2-----------2-----------2-----------2---|
A|---------|---------|-----------------|-0------------------------------------------------------------|
E|---------|---------|-----------------|--------------------------------------------------------------|

E|--------------------------------------------------------------|--------------------------------------------------------------|
B|-0------------0-----------0-----------0-----------1-----------|-0------------0-----------0-----------0-----------1-----------|
G|------2-----------2-----------2-----------2-----------2-------|------2-----------2-----------2-----------2-----------2-------|
D|----------2-----------2-----------2-----------2-----------2---|----------2-----------2-----------2-----------2-----------2---|
A|-0------------------------------------------------------------|-0------------------------------------------------------------|
E|--------------------------------------------------------------|--------------------------------------------------------------|

E|--------------------------------------------------------------|--------------------------------------------------------------|
B|-0------------0-----------0-----------0-----------1-----------|-0------------0-----------0-----------1-----------1-----------|
G|------2-----------2-----------2-----------2-----------2-------|------2-----------2-----------2-----------2-----------2-------|
D|----------2-----------2-----------2-----------2-----------2---|----------2-----------2-----------2-----------2-----------2---|
A|-0------------------------------------------------------------|-0------------------------------------------------------------|
E|--------------------------------------------------------------|--------------------------------------------------------------|

E|--------------------------------------------------------------|--------------------------------------------------------------|
B|-0------------0-----------1-----------1-----------1-----------|-0------------0-----------0-----------1-----------1-----------|
G|------2-----------2-----------2-----------2-----------2-------|------2-----------2-----------2-----------2-----------2-------|
D|----------2-----------2-----------2-----------2-----------2---|----------2-----------2-----------2-----------2-----------2---|
A|-0------------------------------------------------------------|-0------------------------------------------------------------|
E|--------------------------------------------------------------|--------------------------------------------------------------|

E|--------------------------------------------------------------|-----------------------------------------------|
B|-0------------0-----------1-----------1-----------1-----------|----------------0----1------------1--------1---|
G|------2-----------2-----------2-----------2-----------2-------|-----------2-----------------------------------|
D|----------2-----------2-----------2-----------2-----------2---|------2-----------------------2--------2-------|
A|-0------------------------------------------------------------|-0------------------------3--------------------|
E|--------------------------------------------------------------|-----------------------------------------------|

E|-----------------------------------------------|-------------------------------------0--------0---|
B|-----------------------------------------------|-------------------0----1-----------------1-------|
G|---------0---------0-----------------2----4----|-2------------2-----------------------------------|
D|-----0------------------2----2---2-------------|----------2----------------------2----------------|
A|-----------------------------------------------|------0----------------------3--------------------|
E|-3------------3--------------------------------|--------------------------------------------------|

E|--------------------------------------------------|--------------------------------------------------------------|
B|-1---3---0---------3------------------------------|--------------0-----------0-----------0-----------1-----------|
G|------------------------1----1----4---1---2---4---|------2-----------2-----------2-----------2-----------2-------|
D|--------------------------------------------------|----------2-----------2-----------2-----------2-----------2---|
A|--------------------------------------------------|-0------------------------------------------------------------|
E|--------------3-----------------------------------|--------------------------------------------------------------|

E|--------------------------------------------------------|---------|---------|---------|
B|-0------------0-----------0-----------0-----------1-----|---------|---------|---------|
G|------2-----------2-----------2-----------2-------------|-%-------|-%-------|-%-------|
D|----------2-----------2-----------2-----------2---------|-%-------|-%-------|-%-------|
A|-0------------------------------------------------------|---------|---------|---------|
E|--------------------------------------------------------|---------|---------|---------|

E|---------|---------|---------|---------|--------|---------|---------|---------|---------|
B|---------|---------|---------|---------|--------|---------|---------|---------|---------|
G|-%-------|-%-------|-%-------|-%-------|-%------|-%-------|-%-------|-%-------|-%-------|
D|-%-------|-%-------|-%-------|-%-------|-%------|-%-------|-%-------|-%-------|-%-------|
A|---------|---------|---------|---------|--------|---------|---------|---------|---------|
E|---------|---------|---------|---------|--------|---------|---------|---------|---------|

E|--------|-----------------------------------------------|-----------------------------------------------|
B|--------|----------------0----1------------1--------1---|-----------------------------------------------|
G|-%------|-----------2-----------------------------------|---------0---------0-----------------2----4----|
D|-%------|------2-----------------------2--------2-------|-----0------------------2----2---2-------------|
A|--------|-0------------------------3--------------------|-----------------------------------------------|
E|--------|-----------------------------------------------|-3------------3--------------------------------|

E|-------------------------------------0--------0---|--------------------------------------------------|
B|-------------------0----1-----------------1-------|-1---3---0---------3------------------------------|
G|-2------------2-----------------------------------|------------------------1----1----4---1---2---4---|
D|----------2----------------------2----------------|--------------------------------------------------|
A|------0----------------------3--------------------|--------------------------------------------------|
E|--------------------------------------------------|--------------3-----------------------------------|

E|-----------------------------------------------|-----------------------------------------------|
B|----------------0----1------------1--------1---|-----------------------------------------------|
G|-----------2-----------------------------------|---------0---------0-----------------2----4----|
D|------2-----------------------2--------2-------|-----0------------------2----2---2-------------|
A|-0------------------------3--------------------|-----------------------------------------------|
E|-----------------------------------------------|-3------------3--------------------------------|

E|-------------------------------------0--------0---|--------------------------------------------------|
B|-------------------0----1-----------------1-------|-1---3---0---------3------------------------------|
G|-2------------2-----------------------------------|------------------------1----1----4---1---2---4---|
D|----------2----------------------2----------------|--------------------------------------------------|
A|------0----------------------3--------------------|--------------------------------------------------|
E|--------------------------------------------------|--------------3-----------------------------------|

E|--------------------------------------------------------------|--------------------------------------------------------|
B|--------------0-----------0-----------0-----------1-----------|-0------------0-----------0-----------0-----------1-----|
G|------2-----------2-----------2-----------2-----------2-------|------2-----------2-----------2-----------2-------------|
D|----------2-----------2-----------2-----------2-----------2---|----------2-----------2-----------2-----------2---------|
A|-0------------------------------------------------------------|-0------------------------------------------------------|
E|--------------------------------------------------------------|--------------------------------------------------------|

E|--------------------------------------------------------------|--------------------------------------------------------------|
B|-0------------0-----------0-----------0-----------1-----------|-0------------0-----------0-----------0-----------1-----------|
G|------2-----------2-----------2-----------2-----------2-------|------2-----------2-----------2-----------2-----------2-------|
D|----------2-----------2-----------2-----------2-----------2---|----------2-----------2-----------2-----------2-----------2---|
A|-0------------------------------------------------------------|-0------------------------------------------------------------|
E|--------------------------------------------------------------|--------------------------------------------------------------|

E|--------------------------------------------------------------|--------------------------------------------------------------|
B|-0------------0-----------0-----------0-----------1-----------|-0------------0-----------0-----------0-----------1-----------|
G|------2-----------2-----------2-----------2-----------2-------|------2-----------2-----------2-----------2-----------2-------|
D|----------2-----------2-----------2-----------2-----------2---|----------2-----------2-----------2-----------2-----------2---|
A|-0------------------------------------------------------------|-0------------------------------------------------------------|
E|--------------------------------------------------------------|--------------------------------------------------------------|

E|--------------------------------------------------------------|--------------------------------------------------------------|
B|-0------------0-----------0-----------0-----------1-----------|-0------------0-----------0-----------0-----------1-----------|
G|------2-----------2-----------2-----------2-----------2-------|------2-----------2-----------2-----------2-----------2-------|
D|----------2-----------2-----------2-----------2-----------2---|----------2-----------2-----------2-----------2-----------2---|
A|-0------------------------------------------------------------|-0------------------------------------------------------------|
E|--------------------------------------------------------------|--------------------------------------------------------------|

E|--------------------------------------------------------------|---------|---------|
B|-0------------0-----------0-----------0-----------1-----------|---------|---------|
G|------2-----------2-----------2-----------2-----------2-------|-%-------|-%-------|
D|----------2-----------2-----------2-----------2-----------2---|-%-------|-%-------|
A|-0------------------------------------------------------------|---------|---------|
E|--------------------------------------------------------------|---------|---------|

E|---------|---------|---------|---------|---------|--------|---------|---------|---------|
B|---------|---------|---------|---------|---------|--------|---------|---------|---------|
G|-%-------|-%-------|-%-------|-%-------|-%-------|-%------|-%-------|-%-------|-%-------|
D|-%-------|-%-------|-%-------|-%-------|-%-------|-%------|-%-------|-%-------|-%-------|
A|---------|---------|---------|---------|---------|--------|---------|---------|---------|
E|---------|---------|---------|---------|---------|--------|---------|---------|---------|

E|---------|--------|---------|-----------------------------------------------|-----------------------------------------------|
B|---------|--------|---------|----------------0----1------------1--------1---|-----------------------------------------------|
G|-%-------|-%------|-%-------|-----------2-----------------------------------|---------0---------0-----------------2----4----|
D|-%-------|-%------|-%-------|------2-----------------------2--------2-------|-----0------------------2----2---2-------------|
A|---------|--------|---------|-0------------------------3--------------------|-----------------------------------------------|
E|---------|--------|---------|-----------------------------------------------|-3------------3--------------------------------|

E|-------------------------------------0--------0---|--------------------------------------------------|
B|-------------------0----1-----------------1-------|-1---3---0---------3------------------------------|
G|-2------------2-----------------------------------|------------------------1----1----4---1---2---4---|
D|----------2----------------------2----------------|--------------------------------------------------|
A|------0----------------------3--------------------|--------------------------------------------------|
E|--------------------------------------------------|--------------3-----------------------------------|

E|-----------------------------------------------|-----------------------------------------------|
B|----------------0----1------------1--------1---|-----------------------------------------------|
G|-----------2-----------------------------------|---------0---------0-----------------2----4----|
D|------2-----------------------2--------2-------|-----0------------------2----2---2-------------|
A|-0------------------------3--------------------|-----------------------------------------------|
E|-----------------------------------------------|-3------------3--------------------------------|

E|-------------------------------------0--------0---|--------------------------------------------------|
B|-------------------0----1-----------------1-------|-1---3---0---------3------------------------------|
G|-2------------2-----------------------------------|------------------------1----1----4---1---2---4---|
D|----------2----------------------2----------------|--------------------------------------------------|
A|------0----------------------3--------------------|--------------------------------------------------|
E|--------------------------------------------------|--------------3-----------------------------------|

E|-0-----0---0----0----0---0----0---0----0---0---|-3---3---3---3---3----3---3---3---3---3---3---3----3---3---|
B|-1-----1---1----1----1---1----1---1----1---1---|-0---0---0---0---0----0---0---5---5---5---5---5----5---5---|
G|-2-----2---2----2----0---0----0---0----0---0---|-0---0---0---0---0----0---0---4---4---4---4---4----4---4---|
D|-2-----2---2----2----2---2----2---2----2---2---|-0---0---0---0---0----0---0---5---5---5---5---5----5---5---|
A|-0-----0---0----0----3---3----3---3----3---3---|-2---2---2---2---2----2---2---X---X---X---X---X----X---X---|
E|-----------------------------------------------|-3---3---3---3---3----3---3---0---0---0---0---0----0---0---|

E|-0-----0---0----0----0---0----0---0----0---0---|-3----3---3---3----3---3---0---0---0---0---0----0---0---|
B|-1-----1---1----1----1---1----1---1----1---1---|-0----0---0---0----0---0---0---0---0---0---0----0---0---|
G|-2-----2---2----2----0---0----0---0----0---0---|-0----0---0---0----0---0---1---1---1---1---1----1---1---|
D|-2-----2---2----2----2---2----2---2----2---2---|-0----0---0---0----0---0---2---2---2---2---2----2---2---|
A|-0-----0---0----0----3---3----3---3----3---3---|-2----2---2---2----2---2---2---2---2---2---2----2---2---|
E|-----------------------------------------------|-3----3---3---3----3---3---0---0---0---0---0----0---0---|

E|-0-----0---0----0----0---0----0---0----0---0---|-3----3---3---3----3---3---0---0---0---0---0----0---0---|
B|-1-----1---1----1----1---1----1---1----1---1---|-0----0---0---0----0---0---0---0---0---0---0----0---0---|
G|-2-----2---2----2----0---0----0---0----0---0---|-0----0---0---0----0---0---1---1---1---1---1----1---1---|
D|-2-----2---2----2----2---2----2---2----2---2---|-0----0---0---0----0---0---2---2---2---2---2----2---2---|
A|-0-----0---0----0----3---3----3---3----3---3---|-2----2---2---2----2---2---2---2---2---2---2----2---2---|
E|-----------------------------------------------|-3----3---3---3----3---3---0---0---0---0---0----0---0---|

E|-0-----0---0----0----0---0----0---0----0---0---|-3----3---3---3----3---3---0---0---0---0---0----0---0---|
B|-1-----1---1----1----1---1----1---1----1---1---|-0----0---0---0----0---0---0---0---0---0---0----0---0---|
G|-2-----2---2----2----0---0----0---0----0---0---|-0----0---0---0----0---0---1---1---1---1---1----1---1---|
D|-2-----2---2----2----2---2----2---2----2---2---|-0----0---0---0----0---0---2---2---2---2---2----2---2---|
A|-0-----0---0----0----3---3----3---3----3---3---|-2----2---2---2----2---2---2---2---2---2---2----2---2---|
E|-----------------------------------------------|-3----3---3---3----3---3---0---0---0---0---0----0---0---|

E|-0-----0---0----0----0---0----0---0----0---0---|-3----3---3---3----3---3---0---0---0---0---0----0---0---|
B|-1-----1---1----1----1---1----1---1----1---1---|-0----0---0---0----0---0---0---0---0---0---0----0---0---|
G|-2-----2---2----2----0---0----0---0----0---0---|-0----0---0---0----0---0---1---1---1---1---1----1---1---|
D|-2-----2---2----2----2---2----2---2----2---2---|-0----0---0---0----0---0---2---2---2---2---2----2---2---|
A|-0-----0---0----0----3---3----3---3----3---3---|-2----2---2---2----2---2---2---2---2---2---2----2---2---|
E|-----------------------------------------------|-3----3---3---3----3---3---0---0---0---0---0----0---0---|

E|-0-----0---0----0----0---0----0---0----0---0---|-3----3---3---3----3---3---0---0---0---0---0----0---0---|
B|-1-----1---1----1----1---1----1---1----1---1---|-0----0---0---0----0---0---0---0---0---0---0----0---0---|
G|-2-----2---2----2----0---0----0---0----0---0---|-0----0---0---0----0---0---1---1---1---1---1----1---1---|
D|-2-----2---2----2----2---2----2---2----2---2---|-0----0---0---0----0---0---2---2---2---2---2----2---2---|
A|-0-----0---0----0----3---3----3---3----3---3---|-2----2---2---2----2---2---2---2---2---2---2----2---2---|
E|-----------------------------------------------|-3----3---3---3----3---3---0---0---0---0---0----0---0---|

E|-0-----0---0----0----0---0----0---0----0---0---|-3----3---3---3----3---3---0---0---0---0---0----0---0---|
B|-1-----1---1----1----1---1----1---1----1---1---|-0----0---0---0----0---0---0---0---0---0---0----0---0---|
G|-2-----2---2----2----0---0----0---0----0---0---|-0----0---0---0----0---0---1---1---1---1---1----1---1---|
D|-2-----2---2----2----2---2----2---2----2---2---|-0----0---0---0----0---0---2---2---2---2---2----2---2---|
A|-0-----0---0----0----3---3----3---3----3---3---|-2----2---2---2----2---2---2---2---2---2---2----2---2---|
E|-----------------------------------------------|-3----3---3---3----3---3---0---0---0---0---0----0---0---|

E|-0-----0---0----0----0---0----0---0----0---0---|-3----3---3---3----3---3---0---0---0---0---0----0---0---|
B|-1-----1---1----1----1---1----1---1----1---1---|-0----0---0---0----0---0---0---0---0---0---0----0---0---|
G|-2-----2---2----2----0---0----0---0----0---0---|-0----0---0---0----0---0---1---1---1---1---1----1---1---|
D|-2-----2---2----2----2---2----2---2----2---2---|-0----0---0---0----0---0---2---2---2---2---2----2---2---|
A|-0-----0---0----0----3---3----3---3----3---3---|-2----2---2---2----2---2---2---2---2---2---2----2---2---|
E|-----------------------------------------------|-3----3---3---3----3---3---0---0---0---0---0----0---0---|

E|-0-----0---0----0----0---0----0---0----0---0---|-3----3---3---3----3---3---0---0---0---0---0----0---0---|
B|-1-----1---1----1----1---1----1---1----1---1---|-0----0---0---0----0---0---0---0---0---0---0----0---0---|
G|-2-----2---2----2----0---0----0---0----0---0---|-0----0---0---0----0---0---1---1---1---1---1----1---1---|
D|-2-----2---2----2----2---2----2---2----2---2---|-0----0---0---0----0---0---2---2---2---2---2----2---2---|
A|-0-----0---0----0----3---3----3---3----3---3---|-2----2---2---2----2---2---2---2---2---2---2----2---2---|
E|-----------------------------------------------|-3----3---3---3----3---3---0---0---0---0---0----0---0---|

E|-0-----0---0----0----0---0----0---0----0---0---|-3----3---3---3----3---3---0---0---0---0---0----0---0---|
B|-1-----1---1----1----1---1----1---1----1---1---|-0----0---0---0----0---0---0---0---0---0---0----0---0---|
G|-2-----2---2----2----0---0----0---0----0---0---|-0----0---0---0----0---0---1---1---1---1---1----1---1---|
D|-2-----2---2----2----2---2----2---2----2---2---|-0----0---0---0----0---0---2---2---2---2---2----2---2---|
A|-0-----0---0----0----3---3----3---3----3---3---|-2----2---2---2----2---2---2---2---2---2---2----2---2---|
E|-----------------------------------------------|-3----3---3---3----3---3---0---0---0---0---0----0---0---|

E|-0-----0---0----0----0---0----0---0----0---0---|-3----3---3---3----3---3---0---0---0---0---0----0---0---|
B|-1-----1---1----1----1---1----1---1----1---1---|-0----0---0---0----0---0---0---0---0---0---0----0---0---|
G|-2-----2---2----2----0---0----0---0----0---0---|-0----0---0---0----0---0---1---1---1---1---1----1---1---|
D|-2-----2---2----2----2---2----2---2----2---2---|-0----0---0---0----0---0---2---2---2---2---2----2---2---|
A|-0-----0---0----0----3---3----3---3----3---3---|-2----2---2---2----2---2---2---2---2---2---2----2---2---|
E|-----------------------------------------------|-3----3---3---3----3---3---0---0---0---0---0----0---0---|

E|-0-----0---0----0----0---0----0---0----0---0---|-3----3---3---3----3---3---0---0---0---0---0----0---0---|
B|-1-----1---1----1----1---1----1---1----1---1---|-0----0---0---0----0---0---0---0---0---0---0----0---0---|
G|-2-----2---2----2----0---0----0---0----0---0---|-0----0---0---0----0---0---1---1---1---1---1----1---1---|
D|-2-----2---2----2----2---2----2---2----2---2---|-0----0---0---0----0---0---2---2---2---2---2----2---2---|
A|-0-----0---0----0----3---3----3---3----3---3---|-2----2---2---2----2---2---2---2---2---2---2----2---2---|
E|-----------------------------------------------|-3----3---3---3----3---3---0---0---0---0---0----0---0---|

E|-0-----0---0----0----0---0----0---0----0---0---|-3----3---3---3----3---3---0---0---0---0---0----0---0---|
B|-1-----1---1----1----1---1----1---1----1---1---|-0----0---0---0----0---0---0---0---0---0---0----0---0---|
G|-2-----2---2----2----0---0----0---0----0---0---|-0----0---0---0----0---0---1---1---1---1---1----1---1---|
D|-2-----2---2----2----2---2----2---2----2---2---|-0----0---0---0----0---0---2---2---2---2---2----2---2---|
A|-0-----0---0----0----3---3----3---3----3---3---|-2----2---2---2----2---2---2---2---2---2---2----2---2---|
E|-----------------------------------------------|-3----3---3---3----3---3---0---0---0---0---0----0---0---|

E|-0-----0---0----0----0---0----0---0----0---0---|-3----3---3---3----3---3---0---0---0---0---0----0---0---|
B|-1-----1---1----1----1---1----1---1----1---1---|-0----0---0---0----0---0---0---0---0---0---0----0---0---|
G|-2-----2---2----2----0---0----0---0----0---0---|-0----0---0---0----0---0---1---1---1---1---1----1---1---|
D|-2-----2---2----2----2---2----2---2----2---2---|-0----0---0---0----0---0---2---2---2---2---2----2---2---|
A|-0-----0---0----0----3---3----3---3----3---3---|-2----2---2---2----2---2---2---2---2---2---2----2---2---|
E|-----------------------------------------------|-3----3---3---3----3---3---0---0---0---0---0----0---0---|

E|-0-------|---------|---------|---------|---------|---------|---------|-----------------------------|
B|-1-------|---------|---------|---------|---------|---------|---------|--------5----5----6----5-----|
G|-2-------|-%-------|-%-------|-%-------|-%-------|-%-------|-%-------|-----------------------------|
D|-2-------|-%-------|-%-------|-%-------|-%-------|-%-------|-%-------|--------2----2----3----2-----|
A|-0-------|---------|---------|---------|---------|---------|---------|-----------------------------|
E|---------|---------|---------|---------|---------|---------|---------|-0---------------------------|

E|---------------------------------|-----------------------------|---------|-----------------------------|
B|--------8----8----10---6---------|-5------5----5----6----5-----|-5-------|--------5----5----6----5-----|
G|---------------------------------|-----------------------------|---------|-----------------------------|
D|--------5----5----7----3---------|-2------2----2----3----2-----|-2-------|--------2----2----3----2-----|
A|---------------------------------|-----------------------------|---------|-----------------------------|
E|-0---------------------------0---|-----------------------------|---------|-0---------------------------|

E|---------------------------------|-----------------------------|---------|-----------------------------|
B|--------8----8----10---6---------|-5------5----5----6----5-----|-5-------|--------5----5----6----5-----|
G|---------------------------------|-----------------------------|---------|-----------------------------|
D|--------5----5----7----3---------|-2------2----2----3----2-----|-2-------|--------2----2----3----2-----|
A|---------------------------------|-----------------------------|---------|-----------------------------|
E|-0---------------------------0---|-----------------------------|---------|-0---------------------------|

E|------------------------------------|---------|---------------|---------|---------|
B|--------8----8----10---10-6-----6---|-5-------|-5-------------|---------|---------|
G|------------------------------------|---------|--------%------|-%-------|-%-------|
D|--------5----5----7----7--3-----3---|-2-------|-2------%------|-%-------|-%-------|
A|------------------------------------|---------|---------------|---------|---------|
E|-0----------------------------------|-0-------|-0-------------|---------|---------|

E|---------|---------|---------|---------|---------|---------|--------|---------|---------|
B|---------|---------|---------|---------|---------|---------|--------|---------|---------|
G|-%-------|-%-------|-%-------|-%-------|-%-------|-%-------|-%------|-%-------|-%-------|
D|-%-------|-%-------|-%-------|-%-------|-%-------|-%-------|-%------|-%-------|-%-------|
A|---------|---------|---------|---------|---------|---------|--------|---------|---------|
E|---------|---------|---------|---------|---------|---------|--------|---------|---------|

E|---------|---------|---------|---------|---------|---------|---------|---------|---------|
B|---------|---------|---------|---------|---------|---------|---------|---------|---------|
G|-%-------|-%-------|-%-------|-%-------|-%-------|-%-------|-%-------|-%-------|-%-------|
D|-%-------|-%-------|-%-------|-%-------|-%-------|-%-------|-%-------|-%-------|-%-------|
A|---------|---------|---------|---------|---------|---------|---------|---------|---------|
E|---------|---------|---------|---------|---------|---------|---------|---------|---------|

E|---------|---------|--------|---------|---------|---------|---------|---------|---------|
B|---------|---------|--------|---------|---------|---------|---------|---------|---------|
G|-%-------|-%-------|-%------|-%-------|-%-------|-%-------|-%-------|-%-------|-%-------|
D|-%-------|-%-------|-%------|-%-------|-%-------|-%-------|-%-------|-%-------|-%-------|
A|---------|---------|--------|---------|---------|---------|---------|---------|---------|
E|---------|---------|--------|---------|---------|---------|---------|---------|---------|

E|---------|---------|---------|---------|---------|---------|---------|---------|---------|
B|---------|---------|---------|---------|---------|---------|---------|---------|---------|
G|-%-------|-%-------|-%-------|-%-------|-%-------|-%-------|-%-------|-%-------|-%-------|
D|-%-------|-%-------|-%-------|-%-------|-%-------|-%-------|-%-------|-%-------|-%-------|
A|---------|---------|---------|---------|---------|---------|---------|---------|---------|
E|---------|---------|---------|---------|---------|---------|---------|---------|---------|

E|---------|---------|---------|---------|---------|---------|---------|---------|---------|
B|---------|---------|---------|---------|---------|---------|---------|---------|---------|
G|-%-------|-%-------|-%-------|-%-------|-%-------|-%-------|-%-------|-%-------|-%-------|
D|-%-------|-%-------|-%-------|-%-------|-%-------|-%-------|-%-------|-%-------|-%-------|
A|---------|---------|---------|---------|---------|---------|---------|---------|---------|
E|---------|---------|---------|---------|---------|---------|---------|---------|---------|

E|---------|---------|---------|---------|---------|---------|---------|---------|---------|
B|---------|---------|---------|---------|---------|---------|---------|---------|---------|
G|-%-------|-%-------|-%-------|-%-------|-%-------|-%-------|-%-------|-%-------|-%-------|
D|-%-------|-%-------|-%-------|-%-------|-%-------|-%-------|-%-------|-%-------|-%-------|
A|---------|---------|---------|---------|---------|---------|---------|---------|---------|
E|---------|---------|---------|---------|---------|---------|---------|---------|---------|

E|---------|---------|---------|---------|---------|---------|---------|---------|---------|
B|---------|---------|---------|---------|---------|---------|---------|---------|---------|
G|-%-------|-%-------|-%-------|-%-------|-%-------|-%-------|-%-------|-%-------|-%-------|
D|-%-------|-%-------|-%-------|-%-------|-%-------|-%-------|-%-------|-%-------|-%-------|
A|---------|---------|---------|---------|---------|---------|---------|---------|---------|
E|---------|---------|---------|---------|---------|---------|---------|---------|---------|

E|---------|---------|---------|---------|---------|--------|---------|---------|---------|
B|---------|---------|---------|---------|---------|--------|---------|---------|---------|
G|-%-------|-%-------|-%-------|-%-------|-%-------|-%------|-%-------|-%-------|-%-------|
D|-%-------|-%-------|-%-------|-%-------|-%-------|-%------|-%-------|-%-------|-%-------|
A|---------|---------|---------|---------|---------|--------|---------|---------|---------|
E|---------|---------|---------|---------|---------|--------|---------|---------|---------|

E|---------|---------|---------|---------|---------|---------|---------|---------|---------|
B|---------|---------|---------|---------|---------|---------|---------|---------|---------|
G|-%-------|-%-------|-%-------|-%-------|-%-------|-%-------|-%-------|-%-------|-%-------|
D|-%-------|-%-------|-%-------|-%-------|-%-------|-%-------|-%-------|-%-------|-%-------|
A|---------|---------|---------|---------|---------|---------|---------|---------|---------|
E|---------|---------|---------|---------|---------|---------|---------|---------|---------|

E|---------|---------|---------|---------|---------|---------|---------|---------|---------|
B|---------|---------|---------|---------|---------|---------|---------|---------|---------|
G|-%-------|-%-------|-%-------|-%-------|-%-------|-%-------|-%-------|-%-------|-%-------|
D|-%-------|-%-------|-%-------|-%-------|-%-------|-%-------|-%-------|-%-------|-%-------|
A|---------|---------|---------|---------|---------|---------|---------|---------|---------|
E|---------|---------|---------|---------|---------|---------|---------|---------|---------|

E|---------|---------|---------|---------|---------|---------|---------|---------|---------|
B|---------|---------|---------|---------|---------|---------|---------|---------|---------|
G|-%-------|-%-------|-%-------|-%-------|-%-------|-%-------|-%-------|-%-------|-%-------|
D|-%-------|-%-------|-%-------|-%-------|-%-------|-%-------|-%-------|-%-------|-%-------|
A|---------|---------|---------|---------|---------|---------|---------|---------|---------|
E|---------|---------|---------|---------|---------|---------|---------|---------|---------|

E|---------|---------|---------|---------|---------|---------|---------|---------|---------|
B|---------|---------|---------|---------|---------|---------|---------|---------|---------|
G|-%-------|-%-------|-%-------|-%-------|-%-------|-%-------|-%-------|-%-------|-%-------|
D|-%-------|-%-------|-%-------|-%-------|-%-------|-%-------|-%-------|-%-------|-%-------|
A|---------|---------|---------|---------|---------|---------|---------|---------|---------|
E|---------|---------|---------|---------|---------|---------|---------|---------|---------|

E|---------|---------|---------|---------|---------|---------|---------|---------|---------|
B|---------|---------|---------|---------|---------|---------|---------|---------|---------|
G|-%-------|-%-------|-%-------|-%-------|-%-------|-%-------|-%-------|-%-------|-%-------|
D|-%-------|-%-------|-%-------|-%-------|-%-------|-%-------|-%-------|-%-------|-%-------|
A|---------|---------|---------|---------|---------|---------|---------|---------|---------|
E|---------|---------|---------|---------|---------|---------|---------|---------|---------|

E|---------|---------|---------|---------|---------|---------|---------|---------|---------|
B|---------|---------|---------|---------|---------|---------|---------|---------|---------|
G|-%-------|-%-------|-%-------|-%-------|-%-------|-%-------|-%-------|-%-------|-%-------|
D|-%-------|-%-------|-%-------|-%-------|-%-------|-%-------|-%-------|-%-------|-%-------|
A|---------|---------|---------|---------|---------|---------|---------|---------|---------|
E|---------|---------|---------|---------|---------|---------|---------|---------|---------|

E|---------|---------|---------|---------|--------|---------|---------|---------|---------|
B|---------|---------|---------|---------|--------|---------|---------|---------|---------|
G|-%-------|-%-------|-%-------|-%-------|-%------|-%-------|-%-------|-%-------|-%-------|
D|-%-------|-%-------|-%-------|-%-------|-%------|-%-------|-%-------|-%-------|-%-------|
A|---------|---------|---------|---------|--------|---------|---------|---------|---------|
E|---------|---------|---------|---------|--------|---------|---------|---------|---------|

E|---------|---------|---------|---------|---------|---------|---------|---------|---------|
B|---------|---------|---------|---------|---------|---------|---------|---------|---------|
G|-%-------|-%-------|-%-------|-%-------|-%-------|-%-------|-%-------|-%-------|-%-------|
D|-%-------|-%-------|-%-------|-%-------|-%-------|-%-------|-%-------|-%-------|-%-------|
A|---------|---------|---------|---------|---------|---------|---------|---------|---------|
E|---------|---------|---------|---------|---------|---------|---------|---------|---------|

E|---------|---------|---------|---------|---------|---------|---------|---------|---------|
B|---------|---------|---------|---------|---------|---------|---------|---------|---------|
G|-%-------|-%-------|-%-------|-%-------|-%-------|-%-------|-%-------|-%-------|-%-------|
D|-%-------|-%-------|-%-------|-%-------|-%-------|-%-------|-%-------|-%-------|-%-------|
A|---------|---------|---------|---------|---------|---------|---------|---------|---------|
E|---------|---------|---------|---------|---------|---------|---------|---------|---------|

E|---------|---------|---------|---------|---------|---------|---------|---------|---------|
B|---------|---------|---------|---------|---------|---------|---------|---------|---------|
G|-%-------|-%-------|-%-------|-%-------|-%-------|-%-------|-%-------|-%-------|-%-------|
D|-%-------|-%-------|-%-------|-%-------|-%-------|-%-------|-%-------|-%-------|-%-------|
A|---------|---------|---------|---------|---------|---------|---------|---------|---------|
E|---------|---------|---------|---------|---------|---------|---------|---------|---------|

E|---------|---------|---------|---------|---------|---------|---------|---------|---------|
B|---------|---------|---------|---------|---------|---------|---------|---------|---------|
G|-%-------|-%-------|-%-------|-%-------|-%-------|-%-------|-%-------|-%-------|-%-------|
D|-%-------|-%-------|-%-------|-%-------|-%-------|-%-------|-%-------|-%-------|-%-------|
A|---------|---------|---------|---------|---------|---------|---------|---------|---------|
E|---------|---------|---------|---------|---------|---------|---------|---------|---------|

E|---------|---------|---------|---------|---------|---------|---------|---------|---------|
B|---------|---------|---------|---------|---------|---------|---------|---------|---------|
G|-%-------|-%-------|-%-------|-%-------|-%-------|-%-------|-%-------|-%-------|-%-------|
D|-%-------|-%-------|-%-------|-%-------|-%-------|-%-------|-%-------|-%-------|-%-------|
A|---------|---------|---------|---------|---------|---------|---------|---------|---------|
E|---------|---------|---------|---------|---------|---------|---------|---------|---------|

E|---------|---------|---------|---------|---------|---------|---------|---------|---------|
B|---------|---------|---------|---------|---------|---------|---------|---------|---------|
G|-%-------|-%-------|-%-------|-%-------|-%-------|-%-------|-%-------|-%-------|-%-------|
D|-%-------|-%-------|-%-------|-%-------|-%-------|-%-------|-%-------|-%-------|-%-------|
A|---------|---------|---------|---------|---------|---------|---------|---------|---------|
E|---------|---------|---------|---------|---------|---------|---------|---------|---------|

E|---------|---------|---------|---------|---------|---------|---------|---------|---------|
B|---------|---------|---------|---------|---------|---------|---------|---------|---------|
G|-%-------|-%-------|-%-------|-%-------|-%-------|-%-------|-%-------|-%-------|-%-------|
D|-%-------|-%-------|-%-------|-%-------|-%-------|-%-------|-%-------|-%-------|-%-------|
A|---------|---------|---------|---------|---------|---------|---------|---------|---------|
E|---------|---------|---------|---------|---------|---------|---------|---------|---------|

E|---------|---------|---------|---------|---------|---------|---------|---------|---------|
B|---------|---------|---------|---------|---------|---------|---------|---------|---------|
G|-%-------|-%-------|-%-------|-%-------|-%-------|-%-------|-%-------|-%-------|-%-------|
D|-%-------|-%-------|-%-------|-%-------|-%-------|-%-------|-%-------|-%-------|-%-------|
A|---------|---------|---------|---------|---------|---------|---------|---------|---------|
E|---------|---------|---------|---------|---------|---------|---------|---------|---------|

E|---------|---------|---------|---------|---------|---------|---------|---------|---------|
B|---------|---------|---------|---------|---------|---------|---------|---------|---------|
G|-%-------|-%-------|-%-------|-%-------|-%-------|-%-------|-%-------|-%-------|-%-------|
D|-%-------|-%-------|-%-------|-%-------|-%-------|-%-------|-%-------|-%-------|-%-------|
A|---------|---------|---------|---------|---------|---------|---------|---------|---------|
E|---------|---------|---------|---------|---------|---------|---------|---------|---------|

E|---------|---------|---------|---------|---------|---------|---------|---------|---------|
B|---------|---------|---------|---------|---------|---------|---------|---------|---------|
G|-%-------|-%-------|-%-------|-%-------|-%-------|-%-------|-%-------|-%-------|-%-------|
D|-%-------|-%-------|-%-------|-%-------|-%-------|-%-------|-%-------|-%-------|-%-------|
A|---------|---------|---------|---------|---------|---------|---------|---------|---------|
E|---------|---------|---------|---------|---------|---------|---------|---------|---------|

E|---------|---------|---------|---------|---------|---------|---------|---------|---------|
B|---------|---------|---------|---------|---------|---------|---------|---------|---------|
G|-%-------|-%-------|-%-------|-%-------|-%-------|-%-------|-%-------|-%-------|-%-------|
D|-%-------|-%-------|-%-------|-%-------|-%-------|-%-------|-%-------|-%-------|-%-------|
A|---------|---------|---------|---------|---------|---------|---------|---------|---------|
E|---------|---------|---------|---------|---------|---------|---------|---------|---------|

E|---------|---------|---------|---------|---------|---------|---------|---------|---------|
B|---------|---------|---------|---------|---------|---------|---------|---------|---------|
G|-%-------|-%-------|-%-------|-%-------|-%-------|-%-------|-%-------|-%-------|-%-------|
D|-%-------|-%-------|-%-------|-%-------|-%-------|-%-------|-%-------|-%-------|-%-------|
A|---------|---------|---------|---------|---------|---------|---------|---------|---------|
E|---------|---------|---------|---------|---------|---------|---------|---------|---------|

E|---------|---------|---------|---------|---------|---------|---------|---------|---------|
B|---------|---------|---------|---------|---------|---------|---------|---------|---------|
G|-%-------|-%-------|-%-------|-%-------|-%-------|-%-------|-%-------|-%-------|-%-------|
D|-%-------|-%-------|-%-------|-%-------|-%-------|-%-------|-%-------|-%-------|-%-------|
A|---------|---------|---------|---------|---------|---------|---------|---------|---------|
E|---------|---------|---------|---------|---------|---------|---------|---------|---------|

E|---------|---------|---------|---------|---------|---------|---------|---------|---------|
B|---------|---------|---------|---------|---------|---------|---------|---------|---------|
G|-%-------|-%-------|-%-------|-%-------|-%-------|-%-------|-%-------|-%-------|-%-------|
D|-%-------|-%-------|-%-------|-%-------|-%-------|-%-------|-%-------|-%-------|-%-------|
A|---------|---------|---------|---------|---------|---------|---------|---------|---------|
E|---------|---------|---------|---------|---------|---------|---------|---------|---------|

E|---------|---------|---------|---------|---------|---------|---------|---------|---------|
B|---------|---------|---------|---------|---------|---------|---------|---------|---------|
G|-%-------|-%-------|-%-------|-%-------|-%-------|-%-------|-%-------|-%-------|-%-------|
D|-%-------|-%-------|-%-------|-%-------|-%-------|-%-------|-%-------|-%-------|-%-------|
A|---------|---------|---------|---------|---------|---------|---------|---------|---------|
E|---------|---------|---------|---------|---------|---------|---------|---------|---------|

E|---------|---------|---------|---------|---------|---------|---------|---------|---------|
B|---------|---------|---------|---------|---------|---------|---------|---------|---------|
G|-%-------|-%-------|-%-------|-%-------|-%-------|-%-------|-%-------|-%-------|-%-------|
D|-%-------|-%-------|-%-------|-%-------|-%-------|-%-------|-%-------|-%-------|-%-------|
A|---------|---------|---------|---------|---------|---------|---------|---------|---------|
E|---------|---------|---------|---------|---------|---------|---------|---------|---------|

E|---------|---------|---------|---------|---------|---------|---------|---------|---------|
B|---------|---------|---------|---------|---------|---------|---------|---------|---------|
G|-%-------|-%-------|-%-------|-%-------|-%-------|-%-------|-%-------|-%-------|-%-------|
D|-%-------|-%-------|-%-------|-%-------|-%-------|-%-------|-%-------|-%-------|-%-------|
A|---------|---------|---------|---------|---------|---------|---------|---------|---------|
E|---------|---------|---------|---------|---------|---------|---------|---------|---------|

E|---------|---------|---------|---------|---------|---------|---------|---------|---------|
B|---------|---------|---------|---------|---------|---------|---------|---------|---------|
G|-%-------|-%-------|-%-------|-%-------|-%-------|-%-------|-%-------|-%-------|-%-------|
D|-%-------|-%-------|-%-------|-%-------|-%-------|-%-------|-%-------|-%-------|-%-------|
A|---------|---------|---------|---------|---------|---------|---------|---------|---------|
E|---------|---------|---------|---------|---------|---------|---------|---------|---------|

E|---------|---------|---------|---------|---------|---------|---------|---------|---------|
B|---------|---------|---------|---------|---------|---------|---------|---------|---------|
G|-%-------|-%-------|-%-------|-%-------|-%-------|-%-------|-%-------|-%-------|-%-------|
D|-%-------|-%-------|-%-------|-%-------|-%-------|-%-------|-%-------|-%-------|-%-------|
A|---------|---------|---------|---------|---------|---------|---------|---------|---------|
E|---------|---------|---------|---------|---------|---------|---------|---------|---------|

E|---------|---------|
B|---------|---------|
G|-%-------|-%-------|
D|-%-------|-%-------|
A|---------|---------|
E|---------|---------|
Metallica - Black Album Part 1
Metallica - Black Album Part 1.gp3