Metallica - Black Album Part 2

Metallica - Black Album Part 2

Metallica



Title: Black Album 
Album: 
Artist: Metallica
Author: 

Track 1: Guitar
E|-----------------------------------------|-----------------------------------------|
B|-----------------------------------------|-----------------------------------------|
G|-----------------------------------------|-----------------------------------------|
D|-----------------------------------------|-----------------------------------------|
A|-----------4-------------------4---------|-----------4-------------------4---------|
E|-0----2---------2----0----2---------2----|-0----2---------2----0----2---------2----|

E|-----------------------------------------|-----------------------------------------|
B|-----------------------------------------|-----------------------------------------|
G|-----------------------------------------|-----------------------------------------|
D|-----------------------------------------|-----------------------------------------|
A|-----------4-------------------4---------|-----------4-------------------4---------|
E|-0----2---------2----0----2---------2----|-0----2---------2----0----2---------2----|

E|-----------------------------------------|-----------------------------------------|
B|-----------------------------------------|-----------------------------------------|
G|-----------------------------------------|-----------------------------------------|
D|-----------------------------------------|-----------------------------------------|
A|-----------4-------------------4---------|-----------4-------------------4---------|
E|-0----2---------2----0----2---------2----|-0----2---------2----0----2---------2----|

E|-----------------------------------------|-----------------------------------------|
B|-----------------------------------------|-----------------------------------------|
G|-----------------------------------------|-----------------------------------------|
D|-----------------------------------------|-----------------------------------------|
A|-----------4-------------------4---------|-----------4-------------------4---------|
E|-0----2---------2----0----2---------2----|-0----2---------2----0----2---------2----|

E|-----------------------------------------|-----------------------------------------|
B|-----------------------------------------|-----------------------------------------|
G|-----------------------------------------|-----------------------------------------|
D|-----------------------------------------|-----------------------------------------|
A|-----------4-------------------4---------|-----------4-------------------4---------|
E|-0----2---------2----0----2---------2----|-0----2---------2----0----2---------2----|

E|-----------------------------------------|------------------------|-----------------------------------------|
B|-----------------------------------------|------------------------|-----------------------------------------|
G|-----------------------------------------|-----------%------------|-----------------------------------------|
D|-----------------------------------------|-----------%------------|-----------------------------------------|
A|-----------4-------------------4---------|-2----2-----------5-----|-----------4-------------------3---------|
E|-0----2---------2----0----2---------2----|-0----0-----------3-----|-0----2---------2----0----2---------2----|

E|-----------------------------------------|-----------------------------------------|
B|-----------------------------------------|-----------------------------------------|
G|-----------------------------------------|-----------------------------------------|
D|-----------------------------------------|-----------------------------------------|
A|-----------4-------------------3---------|-----------4-------------------3---------|
E|-0----2---------2----0----2---------2----|-0----2---------2----0----2---------2----|

E|-------------------------------------|-----------------------------------------|-----------------------------------------|
B|-------------------------------------|-----------------------------------------|-----------------------------------------|
G|-------------------------------------|-----------------------------------------|-----------------------------------------|
D|-------------------------------------|-----------------------------------------|-----------------------------------------|
A|-----------4-------------------5-----|-----------4-------------------3---------|-----------4-------------------3---------|
E|-0----2---------2----0----2----3-----|-0----2---------2----0----2---------2----|-0----2---------2----0----2---------2----|

E|------------------------|-----------------------------------------|-----------------------------------------|
B|------------------------|-----------------------------------------|-----------------------------------------|
G|-----------%------------|-----------------------------------------|-----------------------------------------|
D|-----------%------------|-----------------------------------------|-----------------------------------------|
A|-2----2-----------5-----|-----------4-------------------3---------|-----------4-------------------3---------|
E|-0----0-----------3-----|-0----2---------2----0----2---------2----|-0----2---------2----0----2---------2----|

E|-----------------------------------------|-------------------------------------|-----------------------------------------|
B|-----------------------------------------|-------------------------------------|-----------------------------------------|
G|-----------------------------------------|-------------------------------------|-----------------------------------------|
D|-----------------------------------------|-------------------------------------|-----------------------------------------|
A|-----------4-------------------3---------|-----------4-------------------5-----|-----------4-------------------3---------|
E|-0----2---------2----0----2---------2----|-0----2---------2----0----2----3-----|-0----2---------2----0----2---------2----|

E|-----------------------------------------|------------------------|-----------------------------------------|
B|-----------------------------------------|------------------------|-----------------------------------------|
G|-----------------------------------------|-----------%------%-----|-2----3----2----0------------------------|
D|-----------------------------------------|-----------%------%-----|-2----3----2----0----3----2----0----3----|
A|-----------4-------------------3---------|-2----2-----------------|---------------------3----2----0----3----|
E|-0----2---------2----0----2---------2----|-0----0-----------------|-----------------------------------------|

E|-------------------------------------|-----------------------------------------|--------------------|
B|-------------------------------------|-----------------------------------------|--------------------|
G|-------------------------------------|-----------------------------------------|------2------3------|
D|-2-----------------------------------|-----------------------------------------|------2------3------|
A|-2-----------------------------------|-----------------------------------------|--------------------|
E|-0-----0----0----0----0----0----0----|-0----0----0----0----0----0----0----0----|-0------------------|

E|-----------------------------------------|-----------------------------------------|
B|-----------------------------------------|-----------------------------------------|
G|-2----3----2----0------------------------|-----------------------------------------|
D|---------------------3----2----0----2----|-3----2----------------------------------|
A|-----------------------------------------|-----------------------------------------|
E|-----------------------------------------|-----------0----0----0----0----0----0----|

E|-----------------------------------------|--------------------|-----------------------------------------|
B|-----------------------------------------|--------------------|-----------------------------------------|
G|-----------------------------------------|------2------3------|-2----3----2----0------------------------|
D|-----------------------------------------|------2------3------|---------------------3----2----0----2----|
A|-----------------------------------------|--------------------|-----------------------------------------|
E|-0----0----0----0----0----0----0----0----|-0------------------|-----------------------------------------|

E|-----------------------------------------|-----------------------------------------|
B|-----------------------------------------|-----------------------------------------|
G|-----------------------------------------|-----------------------------------------|
D|-3----2----------------------------------|-----------------------------------------|
A|-----------------------------------------|-----------------------------------------|
E|-----------0----0----0----0----0----0----|-0----0----0----0----0----0----0----0----|

E|-----------------------------------------|-----------------------------------------|
B|-----------------------------------------|-----------------------------------------|
G|-----------------------------------------|-----------------------------------------|
D|-----------------------------------------|-----------------------------------------|
A|-----------------------------------------|-----------------------------------------|
E|-0----0----0----0----0----0----0----0----|-0----0----0----0----0----0----0----0----|

E|-----------------------------------------|-----------------------------------------|
B|-----------------------------------------|-----------------------------------------|
G|-----------------------------------------|-----------------------------------------|
D|-----------------------------------------|-----------------------------------------|
A|-----------------------------------------|-----------------------------------------|
E|-0----0----0----0----0----0----0----0----|-0----0----0----0----0----0----0----0----|

E|--------------------|-----------------------------------------|-----------------------------------------|
B|--------------------|-----------------------------------------|-----------------------------------------|
G|------2------3------|-----------------------------------------|-----------------------------------------|
D|------2------3------|-2---------------------------------------|-----------------------------------------|
A|--------------------|-2---------------------------------------|-----------------------------------------|
E|-0------------------|-0----0----0----0----0----0----0----0----|-0----0----0----0----0----0----0----0----|

E|-----------------------------------------|-----------------------------------------|
B|-----------------------------------------|-----------------------------------------|
G|-----------------------------------------|-----------------------------------------|
D|-----------------------------------------|-----------------------------------------|
A|-----------------------------------------|-----------------------------------------|
E|-3----3----3----3----3----3----3----3----|-3----3----3----3----3----3----3----3----|

E|-----------------------------------------|----------------------------|---------------|
B|-----------------------------------------|----------------------------|---------------|
G|-----------------------------------------|----------------------------|-2------3------|
D|-----------------------------------------|----------------------------|-2------3------|
A|-----------------------------------------|----------------4------4----|---------------|
E|-2----2----2----2----2----2----2----2----|-2----2----2----2------2----|---------------|

E|-----------------------------------------|-----------------------------------------|
B|-----------------------------------------|-----------------------------------------|
G|-2----3----2----0------------------------|-----------------------------------------|
D|---------------------3----2----0----2----|-----------------------------------------|
A|-----------------------------------------|-----------4-------------------3---------|
E|-----------------------------------------|-0----2---------2----0----2---------2----|

E|-----------------------------------------|-----------------------------------------|
B|-----------------------------------------|-----------------------------------------|
G|-----------------------------------------|-----------------------------------------|
D|-----------------------------------------|-----------------------------------------|
A|-----------4-------------------3---------|-----------4-------------------3---------|
E|-0----2---------2----0----2---------2----|-0----2---------2----0----2---------2----|

E|-----------------------------------------|-------------------------------------|-------------------------------------|
B|-----------------------------------------|-------------------------------------|-------------------------------------|
G|-----------------------------------------|-------------------------------------|-------------------------------------|
D|-----------------------------------------|-------------------------------------|-------------------------------------|
A|-----------4-------------------3---------|-2----4--------------4---------------|-2----4--------------4---------------|
E|-0----2---------2----0----2---------2----|-0----2----2----2----2-----2----2----|-0----2----2----2----2-----2----2----|

E|-------------------------------------|-----------------------------------------|---------------------------------|
B|-------------------------------------|-----------------------------------------|---------------------------------|
G|-------------------------------------|-----------------------------------------|-----------%---------------%-----|
D|-------------------------------------|-----------------------------------------|-----------%---------------%-----|
A|-2----4--------------4---------------|-2----4--------------2----4--------------|-2----4----------2----4----------|
E|-0----2----2----2----2-----2----2----|-0----2----2----2----0----2----2----2----|-0----2----------0----2----------|

E|---------------------------------|-----------------------------------------|-----------------------------------------|
B|---------------------------------|-----------------------------------------|-----------------------------------------|
G|-----------%---------------%-----|-----------------------------------------|-----------------------------------------|
D|-----------%---------------%-----|-----------------------------------------|-----------------------------------------|
A|-2----4----------2----4----------|-----------4-------------------3---------|-----------4-------------------3---------|
E|-0----2----------0----2----------|-0----2---------2----0----2---------2----|-0----2---------2----0----2---------2----|

E|-----------------------------------------|-------------------------------------|-----------------------------------------|
B|-----------------------------------------|-------------------------------------|-----------------------------------------|
G|-----------------------------------------|-------------------------------------|-----------------------------------------|
D|-----------------------------------------|-------------------------------------|-----------------------------------------|
A|-----------4-------------------3---------|-----------4-------------------5-----|-----------4-------------------3---------|
E|-0----2---------2----0----2---------2----|-0----2---------2----0----2----3-----|-0----2---------2----0----2---------2----|

E|-----------------------------------------|-----------------------------------------|
B|-----------------------------------------|-----------------------------------------|
G|-----------------------------------------|-----------------------------------------|
D|-----------------------------------------|-----------------------------------------|
A|-----------4-------------------3---------|-----------4-------------------3---------|
E|-0----2---------2----0----2---------2----|-0----2---------2----0----2---------2----|

E|------------------------|-----------------------------------------|-------------------------------------|
B|------------------------|-----------------------------------------|-------------------------------------|
G|-----------%------%-----|-2----3----2----0------------------------|-------------------------------------|
D|-----------%------%-----|-2----3----2----0----3----2----0----3----|-2-----------------------------------|
A|-2----2-----------------|---------------------3----2----0----3----|-2-----------------------------------|
E|-0----0-----------------|-----------------------------------------|-0-----0----0----0----0----0----0----|

E|-----------------------------------------|--------------------|-----------------------------------------|
B|-----------------------------------------|--------------------|-----------------------------------------|
G|-----------------------------------------|------2------3------|-2----3----2----0------------------------|
D|-----------------------------------------|------2------3------|---------------------3----2----0----2----|
A|-----------------------------------------|--------------------|-----------------------------------------|
E|-0----0----0----0----0----0----0----0----|-0------------------|-----------------------------------------|

E|-----------------------------------------|-----------------------------------------|
B|-----------------------------------------|-----------------------------------------|
G|-----------------------------------------|-----------------------------------------|
D|-3----2----------------------------------|-----------------------------------------|
A|-----------------------------------------|-----------------------------------------|
E|-----------0----0----0----0----0----0----|-0----0----0----0----0----0----0----0----|

E|--------------------|-----------------------------------------|-----------------------------------------|
B|--------------------|-----------------------------------------|-----------------------------------------|
G|------2------3------|-2----3----2----0------------------------|-----------------------------------------|
D|------2------3------|---------------------3----2----0----2----|-3----2----------------------------------|
A|--------------------|-----------------------------------------|-----------------------------------------|
E|-0------------------|-----------------------------------------|-----------0----0----0----0----0----0----|

E|-----------------------------------------|-----------------------------------------|
B|-----------------------------------------|-----------------------------------------|
G|-----------------------------------------|-----------------------------------------|
D|-----------------------------------------|-----------------------------------------|
A|-----------------------------------------|-----------------------------------------|
E|-0----0----0----0----0----0----0----0----|-0----0----0----0----0----0----0----0----|

E|-----------------------------------------|-----------------------------------------|
B|-----------------------------------------|-----------------------------------------|
G|-----------------------------------------|-----------------------------------------|
D|-----------------------------------------|-----------------------------------------|
A|-----------------------------------------|-----------------------------------------|
E|-0----0----0----0----0----0----0----0----|-0----0----0----0----0----0----0----0----|

E|-----------------------------------------|--------------------|-----------------------------------------|
B|-----------------------------------------|--------------------|-----------------------------------------|
G|-----------------------------------------|------2------3------|-----------------------------------------|
D|-----------------------------------------|------2------3------|-2---------------------------------------|
A|-----------------------------------------|--------------------|-2---------------------------------------|
E|-0----0----0----0----0----0----0----0----|-0------------------|-0----0----0----0----0----0----0----0----|

E|-----------------------------------------|-----------------------------------------|
B|-----------------------------------------|-----------------------------------------|
G|-----------------------------------------|-----------------------------------------|
D|-----------------------------------------|-----------------------------------------|
A|-----------------------------------------|-----------------------------------------|
E|-0----0----0----0----0----0----0----0----|-3----3----3----3----3----3----3----3----|

E|-----------------------------------------|-----------------------------------------|
B|-----------------------------------------|-----------------------------------------|
G|-----------------------------------------|-----------------------------------------|
D|-----------------------------------------|-----------------------------------------|
A|-----------------------------------------|-----------------------------------------|
E|-3----3----3----3----3----3----3----3----|-2----2----2----2----2----2----2----2----|

E|----------------------------|---------------|-----------------------------------------|
B|----------------------------|---------------|-----------------------------------------|
G|----------------------------|-2------3------|-2----3----2----0------------------------|
D|----------------------------|-2------3------|---------------------3----2----0----2----|
A|----------------4------4----|---------------|-----------------------------------------|
E|-2----2----2----2------2----|---------------|-----------------------------------------|

E|-----------------------------------------|-----------------------------------------|
B|-----------------------------------------|-----------------------------------------|
G|-----------------------------------------|-----------------------------------------|
D|-----------------------------------------|-----------------------------------------|
A|-----------4-------------------3---------|-----------4-------------------3---------|
E|-0----2---------2----0----2---------2----|-0----2---------2----0----2---------2----|

E|-----------------------------------------|-----------------------------------------|
B|-----------------------------------------|-----------------------------------------|
G|-----------------------------------------|-----------------------------------------|
D|-----------------------------------------|-----------------------------------------|
A|-----------4-------------------3---------|-----------4-------------------3---------|
E|-0----2---------2----0----2---------2----|-0----2---------2----0----2---------2----|

E|-------------------------------------|-------------------------------------|-------------------------------------|
B|-------------------------------------|-------------------------------------|-------------------------------------|
G|-------------------------------------|-------------------------------------|-------------------------------------|
D|-------------------------------------|-------------------------------------|-------------------------------------|
A|-2----4--------------4---------------|-2----4--------------4---------------|-2----4--------------4---------------|
E|-0----2----2----2----2-----2----2----|-0----2----2----2----2-----2----2----|-0----2----2----2----2-----2----2----|

E|-----------------------------------------|---------------------------------|---------------------------------|
B|-----------------------------------------|---------------------------------|---------------------------------|
G|-----------------------------------------|-----------%---------------%-----|-----------%---------------%-----|
D|-----------------------------------------|-----------%---------------%-----|-----------%---------------%-----|
A|-2----4--------------2----4--------------|-2----4----------2----4----------|-2----4----------2----4----------|
E|-0----2----2----2----0----2----2----2----|-0----2----------0----2----------|-0----2----------0----2----------|

E|---------------------------------------|-----------------------------------------|
B|---------------------------------------|-----------------------------------------|
G|-%-----2---3---2---0-------------------|-----------%---------%---------%---------|
D|-%---------------------3----2----0-----|-----------%---------%---------%---------|
A|---------------------------------------|-4----2---------2---------2---------2----|
E|---------------------------------------|-2----0---------0---------0---------0----|

E|-----------------------------------------|-----------------------------------------|
B|-----------------------------------------|-----------------------------------------|
G|-----------------------------------------|-----------------------------------------|
D|-2----4----4----4----2----4----4----4----|-2----4----4----4----2----4----4----4----|
A|-0----2----2----2----0----2----2----2----|-0----2----2----2----0----2----2----2----|
E|-----------------------------------------|-----------------------------------------|

E|-----------------------------------------|-----------------------------------------|
B|-----------------------------------------|-----------------------------------------|
G|-----------------------------------------|-----------------------------------------|
D|-2----4----4----4----2----4----4----4----|-2----4----4----4----2----4----4----4----|
A|-0----2----2----2----0----2----2----2----|-0----2----2----2----0----2----2----2----|
E|-----------------------------------------|-----------------------------------------|

E|-----------------------------------------|-----------------------------------------|
B|-----------------------------------------|-----------------------------------------|
G|-----------------------------------------|-----------------------------------------|
D|-2----4----4----4----2----4----4----4----|-2----4----4----4----2----4----4----4----|
A|-0----2----2----2----0----2----2----2----|-0----2----2----2----0----2----2----2----|
E|-----------------------------------------|-----------------------------------------|

E|-----------------------------------------|-----------------------------------------|
B|-----------------------------------------|-----------------------------------------|
G|-----------------------------------------|-----------------------------------------|
D|-2----4----4----4----2----4----4----4----|-----------------------------------------|
A|-0----2----2----2----0----2----2----2----|-4----2----2----2----2----2----2----2----|
E|-----------------------------------------|-2----0----0----0----0----0----0----0----|

E|-----------------------------------------|-----------------------------------------|
B|-----------------------------------------|-----------------------------------------|
G|-----------------------------------------|-----------------------------------------|
D|-----------------------------------------|-----------------------------------------|
A|-4----2----2----2----2----2----2----2----|-4----2----2----2----2----2----2----2----|
E|-2----0----0----0----0----0----0----0----|-2----0----0----0----0----0----0----0----|

E|-----------------------------------------|-----------------------------------------|
B|-----------------------------------------|-----------------------------------------|
G|-----------------------------------------|-----------------------------------------|
D|-----------------------------------------|-----------------------------------------|
A|-4----2----2----2----2----2----2----2----|-4----2----2----2----2----2----2----2----|
E|-2----0----0----0----0----0----0----0----|-2----0----0----0----0----0----0----0----|

E|-----------------------------------------|-----------------------------------------|
B|-----------------------------------------|-----------------------------------------|
G|-----------------------------------------|-----------------------------------------|
D|-----------------------------------------|-----------------------------------------|
A|-4----2----2----2----2----2----2----2----|-4----2----2----2----2----2----2----2----|
E|-2----0----0----0----0----0----0----0----|-2----0----0----0----0----0----0----0----|

E|-----------------------------------------|-----------------------------------------|
B|-----------------------------------------|-----------------------------------------|
G|-----------------------------------------|-----------------------------------------|
D|-----------------------------------------|-----------------------------------------|
A|-4----2----2----2----2----2----2----2----|-4----2----2----2----2----2----2----2----|
E|-2----0----0----0----0----0----0----0----|-2----0----0----0----0----0----0----0----|

E|-----------------------------------------|-----------------------------------------|
B|-----------------------------------------|-----------------------------------------|
G|-----------------------------------------|-----------------------------------------|
D|-----------------------------------------|-----------------------------------------|
A|-5----7----7----7----7----7----7----7----|-5----7----7----7----7----7----7----7----|
E|-3----5----5----5----5----5----5----5----|-3----5----5----5----5----5----5----5----|

E|-----------------------------------------|-----------------------------------------|
B|-----------------------------------------|-----------------------------------------|
G|-----------------------------------------|-----------------------------------------|
D|-----------------------------------------|-----------------------------------------|
A|-5----7----7----7----7----7----7----7----|-5----7----7----7----7----7----7----7----|
E|-3----5----5----5----5----5----5----5----|-3----5----5----5----5----5----5----5----|

E|-----------------------------|-----------------------------|-----------------------------|
B|-----------------------------|-----------------------------|-----------------------------|
G|-----------------------------|-----------------------------|-----------------------------|
D|-----------------------------|-----------------------------|-----------------------------|
A|-2----4----4-----------------|-2----4----4-----------------|-2----4----4-----------------|
E|-0----2----2-----2-----2-----|-0----2----2-----2-----2-----|-0----2----2-----2-----2-----|

E|---------------|---------------|---------------|-----------------------------------------|
B|---------------|---------------|---------------|-----------------------------------------|
G|---------------|---------------|---------------|-----------------------------------------|
D|---------------|---------------|---------------|-----------------------------------------|
A|-2------4------|-2------4------|-2------4------|-----------------------------------------|
E|-0------2------|-0------2------|-0------2------|-0----0----0----0----0----0----0----0----|

E|-----------------------------------------|-----------------------------------------|
B|-----------------------------------------|-----------------------------------------|
G|-----------------------------------------|-----------------------------------------|
D|-----------------------------------------|-----------------------------------------|
A|-----------------------------------------|-----------------------------------------|
E|-0----0----0----0----0----0----0----0----|-0----0----0----0----0----0----0----0----|

E|-----------------------------------------|---------------------------------|----------------------------------|
B|-----------------------------------------|---------------------------------|----------------------------------|
G|-----------------------------------------|---------------------------------|----------------------------------|
D|-----------------------------------------|---------------------------------|----------------------------------|
A|-----------------------------------------|-2---------------5---------------|-------5-----5----7----5----------|
E|-0----0----0----0----0----0----0----0----|-0-----0----0----3-----0----0----|-6--------------------------6-----|

E|---------------------------------|----------------------------------|---------------------------------|
B|---------------------------------|----------------------------------|---------------------------------|
G|---------------------------------|----------------------------------|---------------------------------|
D|---------------------------------|----------------------------------|---------------------------------|
A|-2---------------5---------------|-------5-----5----7----5----------|-2---------------5---------------|
E|-0-----0----0----3-----0----0----|-6--------------------------6-----|-0-----0----0----3-----0----0----|

E|----------------------------------|---------------------------------|----------------------------------|
B|----------------------------------|---------------------------------|----------------------------------|
G|----------------------------------|---------------------------------|----------------------------------|
D|----------------------------------|---------------------------------|----------------------------------|
A|-------5-----5----7----5----------|-2---------------5---------------|-------5-----5----7----5----------|
E|-6--------------------------6-----|-0-----0----0----3-----0----0----|-6--------------------------6-----|

E|---------------------------------|----------------------------------|---------------------------------|
B|---------------------------------|----------------------------------|---------------------------------|
G|---------------------------------|----------------------------------|---------------------------------|
D|---------------------------------|----------------------------------|---------------------------------|
A|-2---------------5---------------|-------5-----5----7----5----------|-2---------------5---------------|
E|-0-----0----0----3-----0----0----|-6--------------------------6-----|-0-----0----0----3-----0----0----|

E|----------------------------------|---------------------------------|---------------------------------|
B|----------------------------------|---------------------------------|---------------------------------|
G|----------------------------------|-----------%---------------%-----|-----------%---------------%-----|
D|----------------------------------|-X----X----%-----X----X----%-----|-X----X----%-----X----X----%-----|
A|-------5-----5----7----5----------|-X----X----------X----X----------|-X----X----------X----X----------|
E|-6--------------------------6-----|-X----X----------X----X----------|-X----X----------X----X----------|

E|-----------------------------------------|-----------------------------------------|
B|-----------------------------------------|-----------------------------------------|
G|-----------------------------------------|-----------------------------------------|
D|-----------------------------------------|-----------------------------------------|
A|-----------4-------------------3---------|-----------4-------------------3---------|
E|-0----2---------2----0----2---------2----|-0----2---------2----0----2---------2----|

E|-----------------------------------------|-----------------------------------------|
B|-----------------------------------------|-----------------------------------------|
G|-----------------------------------------|-----------------------------------------|
D|-----------------------------------------|-----------------------------------------|
A|-----------4-------------------3---------|-----------4-------------------3---------|
E|-0----2---------2----0----2---------2----|-0----2---------2----0----2---------2----|

E|-----------------------------------------|-----------------------------------------|
B|-----------------------------------------|-----------------------------------------|
G|-----------------------------------------|-----------------------------------------|
D|-----------------------------------------|-----------------------------------------|
A|-----------4-------------------3---------|-----------4-------------------3---------|
E|-0----2---------2----0----2---------2----|-0----2---------2----0----2---------2----|

E|-------------------------------------|-------------------------------------|-------------------------------------|
B|-------------------------------------|-------------------------------------|-------------------------------------|
G|-------------------------------------|-------------------------------------|-------------------------------------|
D|-------------------------------------|-------------------------------------|-------------------------------------|
A|-2----4--------------4---------------|-2----4--------------4---------------|-2----4--------------4---------------|
E|-0----2----2----2----2-----2----2----|-0----2----2----2----2-----2----2----|-0----2----2----2----2-----2----2----|

E|-----------------------------------------|---------------------------------|-------------------------------------|
B|-----------------------------------------|---------------------------------|-------------------------------------|
G|-----------------------------------------|-----------%---------------%-----|-------------------------------------|
D|-----------------------------------------|-----------%---------------%-----|-------------------------------------|
A|-2----4--------------2----4--------------|-2----4----------2----4----------|-2----4--------------4---------------|
E|-0----2----2----2----0----2----2----2----|-0----2----------0----2----------|-0----2----2----2----2-----2----2----|

E|-------------------------------------|---------------------------------|---------------------------------|
B|-------------------------------------|---------------------------------|---------------------------------|
G|-------------------------------------|-----------%---------------%-----|-----------%---------------%-----|
D|-------------------------------------|-----------%---------------%-----|-----------%---------------%-----|
A|-2----4--------------4---------------|-2----4----------2----4----------|-2----4----------2----4----------|
E|-0----2----2----2----2-----2----2----|-0----2----------0----2----------|-0----2----------0----2----------|

E|--------------------|-----------------------------------------|-----------------------------------------|
B|--------------------|-----------------------------------------|-----------------------------------------|
G|-%------%-----------|-----------------------------------------|-----------------------------------------|
D|-%------%-----------|-----------------------------------------|-----------------------------------------|
A|--------------5-----|-----------4-------------------3---------|-----------4-------------------3---------|
E|--------------3-----|-0----2---------2----0----2---------2----|-0----2---------2----0----2---------2----|

E|-----------------------------------------|-----------------------------------------|
B|-----------------------------------------|-----------------------------------------|
G|-----------------------------------------|-----------------------------------------|
D|-----------------------------------------|-----------------------------------------|
A|-----------4-------------------3---------|-----------4-------------------3---------|
E|-0----2---------2----0----2---------2----|-0----2---------2----0----2---------2----|

E|----------------------------|-----------------------------------------------------------------|
B|----------------------------|-----------------------------------------------------------------|
G|------------%------%----%---|-%---%---%---%---%---%---%---%---%---%---%---%---%---%---%---%---|
D|------------%------%----%---|-%---%---%---%---%---%---%---%---%---%---%---%---%---%---%---%---|
A|-5----5---------------------|-----------------------------------------------------------------|
E|-3----3---------------------|-----------------------------------------------------------------|

E|-----------------------------------------------------------------|--------------|
B|-----------------------------------------------------------------|--------------|
G|-%---%---%---%---%---%---%---%---%---%---%---%---%---%---%---%---|-%------%-----|
D|-%---%---%---%---%---%---%---%---%---%---%---%---%---%---%---%---|-%------%-----|
A|-----------------------------------------------------------------|--------------|
E|-----------------------------------------------------------------|--------------|

E|--------------|--------------|--------------|--------------|--------------|------------|
B|--------------|--------------|--------------|--------------|--------------|------------|
G|-%------%-----|-%------%-----|-%------%-----|-%------%-----|-%------%-----|-%-----%----|
D|-%------%-----|-%------%-----|-%------%-----|-%------%-----|-%------%-----|-%-----%----|
A|--------------|--------------|--------------|--------------|--------------|------------|
E|--------------|--------------|--------------|--------------|--------------|------------|

E|--------------|--------------|--------------|--------------|--------------|--------------|
B|--------------|--------------|--------------|--------------|--------------|--------------|
G|-%------%-----|-%------%-----|-%------%-----|-%------%-----|-%------%-----|-%------%-----|
D|-%------%-----|-%------%-----|-%------%-----|-%------%-----|-%------%-----|-%------%-----|
A|--------------|--------------|--------------|--------------|--------------|--------------|
E|--------------|--------------|--------------|--------------|--------------|--------------|

E|--------------|--------------|--------------|--------------|--------------|--------------|
B|--------------|--------------|--------------|--------------|--------------|--------------|
G|-%------%-----|-%------%-----|-%------%-----|-%------%-----|-%------%-----|-%------%-----|
D|-%------%-----|-%------%-----|-%------%-----|-%------%-----|-%------%-----|-%------%-----|
A|--------------|--------------|--------------|--------------|--------------|--------------|
E|--------------|--------------|--------------|--------------|--------------|--------------|

E|--------------|--------------|--------------|--------------|--------------|--------------|
B|--------------|--------------|--------------|--------------|--------------|--------------|
G|-%------%-----|-%------%-----|-%------%-----|-%------%-----|-%------%-----|-%------%-----|
D|-%------%-----|-%------%-----|-%------%-----|-%------%-----|-%------%-----|-%------%-----|
A|--------------|--------------|--------------|--------------|--------------|--------------|
E|--------------|--------------|--------------|--------------|--------------|--------------|

E|--------------|--------------|--------------|--------------|--------------|--------------|
B|--------------|--------------|--------------|--------------|--------------|--------------|
G|-%------%-----|-%------%-----|-%------%-----|-%------%-----|-%------%-----|-%------%-----|
D|-%------%-----|-%------%-----|-%------%-----|-%------%-----|-%------%-----|-%------%-----|
A|--------------|--------------|--------------|--------------|--------------|--------------|
E|--------------|--------------|--------------|--------------|--------------|--------------|

E|--------------|--------------|---------|--------------------|---------|--------------------|
B|--------------|--------------|---------|--------------------|---------|--------------------|
G|-%------%-----|-%------%-----|-9-------|-11----12----9------|-9-------|-11----12----12-----|
D|-%------%-----|-%------%-----|---------|--------------------|---------|--------------------|
A|--------------|--------------|---------|--------------------|---------|--------------------|
E|--------------|--------------|---------|--------------------|---------|--------------------|

E|---------|--------------------|---------|---------|---------|--------------|--------------|
B|---------|--------------------|---------|---------|---------|--------------|--------------|
G|-12------|-11----12----9------|---------|---------|---------|-%------%-----|-%------%-----|
D|---------|--------------------|-9-------|-9-------|-9-------|-%------%-----|-%------%-----|
A|---------|--------------------|---------|---------|---------|--------------|--------------|
E|---------|--------------------|---------|---------|---------|--------------|--------------|

E|--------------|--------------|--------------|--------------|--------------|--------------|
B|--------------|--------------|--------------|--------------|--------------|--------------|
G|-%------%-----|-%------%-----|-%------%-----|-%------%-----|-%------%-----|-%------%-----|
D|-%------%-----|-%------%-----|-%------%-----|-%------%-----|-%------%-----|-%------%-----|
A|--------------|--------------|--------------|--------------|--------------|--------------|
E|--------------|--------------|--------------|--------------|--------------|--------------|

E|--------------|--------------|--------------|--------------|---------|--------|---------|
B|--------------|--------------|--------------|--------------|---------|--------|---------|
G|-%------%-----|-%------%-----|-%------%-----|-%------%-----|-%-------|-%------|-%-------|
D|-%------%-----|-%------%-----|-%------%-----|-%------%-----|-%-------|-%------|-%-------|
A|--------------|--------------|--------------|--------------|---------|--------|---------|
E|--------------|--------------|--------------|--------------|---------|--------|---------|

E|--------------|--------------|--------------|--------------|--------------|--------------|
B|--------------|--------------|--------------|--------------|--------------|--------------|
G|-%------%-----|-%------%-----|-%------%-----|-%------%-----|-%------%-----|-%------%-----|
D|-%------%-----|-%------%-----|-%------%-----|-%------%-----|-%------%-----|-%------%-----|
A|--------------|--------------|--------------|--------------|--------------|--------------|
E|--------------|--------------|--------------|--------------|--------------|--------------|

E|--------------|--------------|--------------|--------------|--------------|--------------|
B|--------------|--------------|--------------|--------------|--------------|--------------|
G|-%------%-----|-%------%-----|-%------%-----|-%------%-----|-%------%-----|-%------%-----|
D|-%------%-----|-%------%-----|-%------%-----|-%------%-----|-%------%-----|-%------%-----|
A|--------------|--------------|--------------|--------------|--------------|--------------|
E|--------------|--------------|--------------|--------------|--------------|--------------|

E|--------------|---------|--------|--------------|-------------------|-12-----14-----|
B|--------------|---------|--------|--------------|-------12----15----|---------------|
G|-%------%-----|-%-------|-%------|--------12----|-14----------------|---------------|
D|-%------%-----|-%-------|-%------|-14-----------|-------------------|---------------|
A|--------------|---------|--------|--------------|-------------------|---------------|
E|--------------|---------|--------|--------------|-------------------|---------------|

E|-15-----17-----|--------------|--------------|--------------|--------------|--------------|
B|---------------|--------------|--------------|--------------|--------------|--------------|
G|---------------|-%------%-----|-%------%-----|-%------%-----|-%------%-----|-%------%-----|
D|---------------|-%------%-----|-%------%-----|-%------%-----|-%------%-----|-%------%-----|
A|---------------|--------------|--------------|--------------|--------------|--------------|
E|---------------|--------------|--------------|--------------|--------------|--------------|

E|--------------|--------------|--------------|--------------|--------------|--------------|
B|--------------|--------------|--------------|--------------|--------------|--------------|
G|-%------%-----|-%------%-----|-%------%-----|-%------%-----|-%------%-----|-%------%-----|
D|-%------%-----|-%------%-----|-%------%-----|-%------%-----|-%------%-----|-%------%-----|
A|--------------|--------------|--------------|--------------|--------------|--------------|
E|--------------|--------------|--------------|--------------|--------------|--------------|

E|--------------|--------------|--------------|---------|--------------------|---------|
B|--------------|--------------|--------------|-8-------|--------------------|---------|
G|-%------%-----|-%------%-----|-%------%-----|-9-------|-11----12----9------|-9-------|
D|-%------%-----|-%------%-----|-%------%-----|---------|--------------------|---------|
A|--------------|--------------|--------------|---------|--------------------|---------|
E|--------------|--------------|--------------|---------|--------------------|---------|

E|--------------------|---------|--------------------|---------|---------|---------|
B|--------------------|---------|--------------------|---------|---------|---------|
G|-11----12----12-----|-12------|-11----12----9------|---------|---------|---------|
D|--------------------|---------|--------------------|-9-------|-9-------|-9-------|
A|--------------------|---------|--------------------|---------|---------|---------|
E|--------------------|---------|--------------------|---------|---------|---------|

E|--------------|--------------|--------------|--------------|--------------|--------------|
B|--------------|--------------|--------------|--------------|--------------|--------------|
G|-%------%-----|-%------%-----|-%------%-----|-%------%-----|-%------%-----|-%------%-----|
D|-%------%-----|-%------%-----|-%------%-----|-%------%-----|-%------%-----|-%------%-----|
A|--------------|--------------|--------------|--------------|--------------|--------------|
E|--------------|--------------|--------------|--------------|--------------|--------------|

E|--------------|--------------|--------------|--------------|--------------|--------------|
B|--------------|--------------|--------------|--------------|--------------|--------------|
G|-%------%-----|-%------%-----|-%------%-----|-%------%-----|-%------%-----|-%------%-----|
D|-%------%-----|-%------%-----|-%------%-----|-%------%-----|-%------%-----|-%------%-----|
A|--------------|--------------|--------------|--------------|--------------|--------------|
E|--------------|--------------|--------------|--------------|--------------|--------------|

E|--------------|--------------|--------------|--------------|---------|--------|---------------|
B|--------------|--------------|--------------|--------------|---------|--------|-5------7------|
G|-%------%-----|-%------%-----|-%------%-----|-%------%-----|-%-------|-%------|---------------|
D|-%------%-----|-%------%-----|-%------%-----|-%------%-----|-%-------|-%------|---------------|
A|--------------|--------------|--------------|--------------|---------|--------|---------------|
E|--------------|--------------|--------------|--------------|---------|--------|---------------|

E|--------5------|--------------------------|-------------------------------------------|
B|-8-------------|-15-----------------------|-------------------------------------------|
G|---------------|-14----14---12----14--12--|-11--12--11------11------------12--14--12--|
D|---------------|--------------------------|-------------14------12--14----------------|
A|---------------|--------------------------|-------------------------------------------|
E|---------------|--------------------------|-------------------------------------------|

E|---------12----------12--------------------------|--------------------------------------|
B|-----12----------12------15--12------12----------|------------14------14--13------------|
G|-14----------14------------------15------15--14--|-12---12----14--%---14--13--12----12--|
D|-------------------------------------------------|---------14-----%---------------------|
A|-------------------------------------------------|--------------------------------------|
E|-------------------------------------------------|--------------------------------------|

E|-0--15--15--14--------15---14---15-17--17--|-15--14-15-14-12------15--14--------------------|
B|-----------------12------------------------|------------------12----------12----------------|
G|-------------------------------------------|------------------------------------12--14--12--|
D|-------------------------------------------|------------------------------------------------|
A|-------------------------------------------|------------------------------------------------|
E|-------------------------------------------|------------------------------------------------|

E|-------------------------12----------------|---------|---------|---------------------|
B|-15------------------12-------15--15---12--|-15------|-15------|-12--15--12-----7----|
G|-14---12-----12--14------------------------|---------|---------|---------------------|
D|---------14--------------------------------|---------|---------|---------------------|
A|-------------------------------------------|---------|---------|---------------------|
E|-------------------------------------------|---------|---------|---------------------|

E|---------------------|---------|---------|---------|--------------|--------------|
B|-5---7---5------5----|---------|---------|---------|--------------|--------------|
G|---------------------|-%-------|-%-------|-%-------|-%------%-----|-%------%-----|
D|---------------------|-%-------|-%-------|-%-------|-%------%-----|-%------%-----|
A|---------------------|---------|---------|---------|--------------|--------------|
E|---------------------|---------|---------|---------|--------------|--------------|

E|--------------|--------------|--------------|--------------|--------------|--------------|
B|--------------|--------------|--------------|--------------|--------------|--------------|
G|-%------%-----|-%------%-----|-%------%-----|-%------%-----|-%------%-----|-%------%-----|
D|-%------%-----|-%------%-----|-%------%-----|-%------%-----|-%------%-----|-%------%-----|
A|--------------|--------------|--------------|--------------|--------------|--------------|
E|--------------|--------------|--------------|--------------|--------------|--------------|

E|------------|--------------|--------------|--------------|--------------|------------|
B|------------|--------------|--------------|--------------|--------------|------------|
G|-%-----%----|-%------%-----|-%------%-----|-%-----%------|-%------%-----|-%-----%----|
D|-%-----%----|-%------%-----|-%------%-----|-%-----%------|-%------%-----|-%-----%----|
A|------------|--------------|--------------|--------------|--------------|------------|
E|------------|--------------|--------------|--------------|--------------|------------|

E|--------------|--------------|--------------|--------------|------------|--------------|
B|--------------|--------------|--------------|--------------|------------|--------------|
G|-%------%-----|-%------%-----|-%-----%------|-%------%-----|-%----%-----|-%------%-----|
D|-%------%-----|-%------%-----|-%-----%------|-%------%-----|-%----%-----|-%------%-----|
A|--------------|--------------|--------------|--------------|------------|--------------|
E|--------------|--------------|--------------|--------------|------------|--------------|

E|--------------|--------------|--------------|------------|--------------|---------|
B|--------------|--------------|--------------|------------|--------------|---------|
G|-%------%-----|-%------%-----|-%------%-----|-%----%-----|-%------%-----|-%-------|
D|-%------%-----|-%------%-----|-%------%-----|-%----%-----|-%------%-----|-%-------|
A|--------------|--------------|--------------|------------|--------------|---------|
E|--------------|--------------|--------------|------------|--------------|---------|

E|---------|-------------------------|-----------------------------------------|-----------------------------------------|
B|---------|-------------------------|-----------------------------------------|-----------------------------------------|
G|-%-------|-%-----%-----%-----%-----|------%---------%---------%---------%----|------%---------%---------%---------%----|
D|-%-------|-%-----%-----%-----%-----|-2----%----2----%----2----%----2----%----|-2----%----2----%----2----%----2----%----|
A|---------|-------------------------|-2---------2---------2---------2---------|-2---------2---------2---------2---------|
E|---------|-------------------------|-0---------0---------0---------0---------|-0---------0---------0---------0---------|

E|-----------------------------------------|-----------------------------------------|
B|-----------------------------------------|-----------------------------------------|
G|------%---------%---------%---------%----|------%---------%---------%---------%----|
D|-2----%----2----%----2----%----2----%----|-2----%----2----%----2----%----2----%----|
A|-2---------2---------2---------2---------|-2---------2---------2---------2---------|
E|-0---------0---------0---------0---------|-0---------0---------0---------0---------|

E|-----------------------------------------|-----------------------------------------|
B|-----------------------------------------|-----------------------------------------|
G|------%---------%---------%---------%----|------%---------%---------%---------%----|
D|-2----%----2----%----2----%----2----%----|-2----%----2----%----2----%----2----%----|
A|-2---------2---------2---------2---------|-2---------2---------2---------2---------|
E|-0---------0---------0---------0---------|-0---------0---------0---------0---------|

E|--------------------------------------------|---------|--------------------------------------------|
B|--------------------------------------------|---------|--------------------------------------------|
G|--------------------------------------------|---------|--------------------------------------------|
D|-----------------------------4---------3----|-3-------|-----------------------------4---------3----|
A|--------------3----2---------2---------1----|-1-------|--------------3----2---------2---------1----|
E|-0----0---0---1----0----0---------0---------|---------|-0----0---0---1----0----0---------0---------|

E|---------|-----------------------------------------------|-----------------------------------------------|
B|---------|-----------------------------------------------|-----------------------------------------------|
G|---------|-----------------------------------------------|-----------------------------------------------|
D|-3-------|-------------------------------------4----3----|-------------------------------------4----3----|
A|-1-------|--------------3----2-----------------2----1----|--------------3----2-----------------2----1----|
E|---------|-0----0---0---1----0----0----0---0-------------|-X----X---X---1----0----X----X---X-------------|

E|-----------------------------------------------|-----------------------------------------------|
B|-----------------------------------------------|-----------------------------------------------|
G|-----------------------------------------------|-----------------------------------------------|
D|-------------------------------------4----3----|-------------------------------------4----3----|
A|--------------3----2-----------------2----1----|--------------3----2-----------------2----1----|
E|-X----X---X---1----0----X----X---X-------------|-X----X---X---1----0----X----X---X-------------|

E|-----------------------------------------------|-----------------------------------------------|
B|-----------------------------------------------|-----------------------------------------------|
G|-----------------------------------------------|-----------------------------------------------|
D|-------------------------------------4----3----|-------------------------------------4----3----|
A|--------------3----2-----------------2----1----|--------------3----2-----------------2----1----|
E|-X----X---X---1----0----X----X---X-------------|-X----X---X---1----0----X----X---X-------------|

E|-----------------------------------------------|-----------------------------------------------|
B|-----------------------------------------------|-----------------------------------------------|
G|-----------------------------------------------|-----------------------------------------------|
D|-------------------------------------4----3----|-------------------------------------4----3----|
A|--------------3----2-----------------2----1----|--------------3----2-----------------2----1----|
E|-X----X---X---1----0----X----X---X-------------|-X----X---X---1----0----X----X---X-------------|

E|-----------------------------------------------|--------------------------------------------|
B|-----------------------------------------------|--------------------------------------------|
G|-----------------------------------------------|--------------------------------------------|
D|-------------------------------------4----3----|-----------------------------4---------3----|
A|--------------3----2-----------------2----1----|--------------3----2---------2---------1----|
E|-X----X---X---1----0----X----X---X-------------|-X----X---X---1----0----X---------X---------|

E|----------------------------------------------|--------------------------------------------|
B|----------------------------------------------|--------------------------------------------|
G|----------------------------------------------|--------------------------------------------|
D|-3--------------------------------------------|-----------------------------4---------3----|
A|-1------------5---7---5---0---7-----7----7----|--------------3----2---------2---------1----|
E|------5---7-----------------------------------|-X----X---X---1----0----X---------X---------|

E|----------------------------------------------|--------------------------------------------|
B|----------------------------------------------|--------------------------------------------|
G|----------------------------------------------|--------------------------------------------|
D|-3--------------------------------------------|-----------------------------4---------3----|
A|-1------------5---7---5---0---7-----7----7----|--------------3----2---------2---------1----|
E|------5---7-----------------------------------|-X----X---X---1----0----X---------X---------|

E|----------------------------------------------|--------------------------------------------|
B|----------------------------------------------|--------------------------------------------|
G|----------------------------------------------|--------------------------------------------|
D|-3--------------------------------------------|-----------------------------4---------3----|
A|-1------------5---7---5---0---7-----7----7----|--------------3----2---------2---------1----|
E|------5---7-----------------------------------|-X----X---X---1----0----X---------X---------|

E|----------------------------------------------|--------------------------------------------|
B|----------------------------------------------|--------------------------------------------|
G|----------------------------------------------|--------------------------------------------|
D|-3--------------------------------------------|-----------------------------4---------3----|
A|-1------------5---7---5---0---7-----7----7----|--------------3----2---------2---------1----|
E|------5---7-----------------------------------|-X----X---X---1----0----X---------X---------|

E|----------------------------------------------|--------------------------------------------|
B|----------------------------------------------|--------------------------------------------|
G|----------------------------------------------|--------------------------------------------|
D|-3--------------------------------------------|-----------------------------4---------3----|
A|-1------------5---7---5---0---7-----7----7----|--------------3----2---------2---------1----|
E|------5---7-----------------------------------|-X----X---X---1----0----X---------X---------|

E|----------------------------------------------|-----------------------------------------|
B|----------------------------------------------|-----------------------------------------|
G|----------------------------------------------|------%---------%---------%---------%----|
D|-3--------------------------------------------|-2----%----2----%----2----%----2----%----|
A|-1------------5---7---5---0---7-----7----7----|-2---------2---------2---------2---------|
E|------5---7-----------------------------------|-0---------0---------0---------0---------|

E|---------------------|---------|-----------------------------------------|---------|
B|---------------------|---------|-----------------------------------------|---------|
G|---------------------|---------|-----------------------------------------|---------|
D|------4---------3----|-3-------|-2----2----3----2---------4---------3----|-3-------|
A|------2---------1----|-1-------|-2----2----3----2---------2---------1----|-1-------|
E|-X---------X---------|---------|-0----0----1----0----X---------X---------|---------|

E|-----------------------------------------|---------|-----------------------------------------|
B|-----------------------------------------|---------|-----------------------------------------|
G|-----------------------------------------|---------|-----------------------------------------|
D|-2----2----3----2---------6---------5----|-5-------|-4----4----5----4---------6---------5----|
A|-2----2----3----2---------4---------3----|-3-------|-4----4----5----4---------4---------3----|
E|-0----0----1----0----X---------X---------|---------|-2----2----3----2----X---------X---------|

E|---------|-----------------------------------------------|-------------------------------------|
B|---------|-----------------------------------------------|-------------------------------------|
G|---------|-----------------------------------------------|------%---------%---------%----------|
D|-5-------|-----------------------------------------------|------%---------%---------%----------|
A|-3-------|--------------5----4-----------------5----4----|-4---------4---------4---------------|
E|---------|-2----2---2---3----2----2----2---2---3----2----|-2---------2---------2---------14----|

E|--------------------------------------------|----------------------------------------------|
B|--------------------------------------------|----------------------------------------------|
G|--------------------------------------------|----------------------------------------------|
D|-----------------------------4---------3----|-3--------------------------------------------|
A|--------------3----2---------2---------1----|-1------------5---7---5---0---7-----7----7----|
E|-X----X---X---1----0----X---------X---------|------5---7-----------------------------------|

E|--------------------------------------------|----------------------------------------------|
B|--------------------------------------------|----------------------------------------------|
G|--------------------------------------------|----------------------------------------------|
D|-----------------------------4---------3----|-3--------------------------------------------|
A|--------------3----2---------2---------1----|-1------------5---7---5---0---7-----7----7----|
E|-X----X---X---1----0----X---------X---------|------5---7-----------------------------------|

E|-----------------------------------------------|-----------------------------------------------|
B|-----------------------------------------------|-----------------------------------------------|
G|-----------------------------------------------|-----------------------------------------------|
D|-------------------------------------4----3----|-------------------------------------4----3----|
A|--------------3----2-----------------2----1----|--------------3----2-----------------2----1----|
E|-X----X---X---1----0----X----X---X-------------|-X----X---X---1----0----X----X---X-------------|

E|-----------------------------------------------|-----------------------------------------------|
B|-----------------------------------------------|-----------------------------------------------|
G|-----------------------------------------------|-----------------------------------------------|
D|-------------------------------------4----3----|-------------------------------------4----3----|
A|--------------3----2-----------------2----1----|--------------3----2-----------------2----1----|
E|-X----X---X---1----0----X----X---X-------------|-X----X---X---1----0----X----X---X-------------|

E|--------------------------------------------|---------|--------------------------------------------------|
B|--------------------------------------------|---------|--------------------------------------------------|
G|--------------------------------------------|---------|--------------------------------------------------|
D|-----------------------------4---------3----|-3-------|--------------3-----------------------------------|
A|--------------3----2---------2---------1----|-1-------|--------------3----2------------------------------|
E|-X----X---X---1----0----X---------X---------|---------|-0----0---0--------0----0----0---0---0----0---0---|

E|--------------------------------------------------|--------------------------------------------------|
B|--------------------------------------------------|--------------------------------------------------|
G|--------------------------------------------------|--------------------------------------------------|
D|--------------3-----------------------------------|--------------3-----------------------------------|
A|--------------3----2------------------------------|--------------3----2------------------------------|
E|-0----0---0--------0----0----0---0---0----0---0---|-0----0---0--------0----0----0---0---0----0---0---|

E|-------------------------------------|--------------------------------------------------|
B|-------------------------------------|--------------------------------------------------|
G|------%--------------------%---------|--------------------------------------------------|
D|------%---------------3----%----3----|--------------3-----------------------------------|
A|-5---------5-----5----3---------3----|--------------3----2------------------------------|
E|-3---------3-----3-------------------|-0----0---0--------0----0----0---0---0----0---0---|

E|--------------------------------------------------|--------------------------------------------------|
B|--------------------------------------------------|--------------------------------------------------|
G|--------------------------------------------------|--------------------------------------------------|
D|--------------3-----------------------------------|--------------3-----------------------------------|
A|--------------3----2------------------------------|--------------3----2------------------------------|
E|-0----0---0--------0----0----0---0---0----0---0---|-0----0---0--------0----0----0---0---0----0---0---|

E|-------------------------------------|-----------------------------------------|---------|
B|-------------------------------------|-----------------------------------------|---------|
G|------%--------------------%---------|-----------------------------------------|---------|
D|------%---------------3----%----3----|-----------3--------------4---------3----|-3-------|
A|-5---------5-----5----3---------3----|-2----2----3----2---------2---------1----|-1-------|
E|-3---------3-----3-------------------|-0----0---------0----0---------0---------|---------|

E|----------------------------|---------|-----------------------------------------|
B|----------------------------|---------|-----------------------------------------|
G|------------------%---------|---------|------%---------%---------%---------%----|
D|-3------3----6----%----5----|-5-------|-5----%----6----%----7----%----8----%----|
A|-1------1----4---------3----|-3-------|-3---------4---------5---------6---------|
E|----------------------------|---------|-----------------------------------------|

E|--------------------------------------------|----------------------------------------------|
B|--------------------------------------------|----------------------------------------------|
G|--------------------------------------------|----------------------------------------------|
D|-----------------------------4---------3----|-3--------------------------------------------|
A|--------------3----2---------2---------1----|-1------------5---7---5---0---7-----7----7----|
E|-X----X---X---1----0----X---------X---------|------5---7-----------------------------------|

E|--------------------------------------------|------------------------------------------|
B|--------------------------------------------|------------------------------------------|
G|--------------------------------------------|------------------------------------------|
D|-----------------------------4---------3----|-3----------------------------------------|
A|--------------3----2---------2---------1----|-1------------5---7---5---0---7-----7-----|
E|-X----X---X---1----0----X---------X---------|------5---7-------------------------------|

E|-------------------------------|---------|--------------------------------------------------|
B|-------------------------------|---------|--------------------------------------------------|
G|-------------------------------|---------|--------------------------------------------------|
D|-------------------------------|---------|--------------------------------------------------|
A|-7------5---------5---5---4----|-4-------|--------------3----2------------------------------|
E|--------3----0----3---3---2----|-2-------|-0----0---0---1----0----0----0---0---0----0---0---|

E|-----------------------------------------------------|--------------------------------------------------|
B|-----------------------------------------------------|--------------------------------------------------|
G|-----------------------------------------------------|--------------------------------------------------|
D|-----------------------------------------------------|--------------------------------------------------|
A|-----------------------------------------------------|--------------3----2------------------------------|
E|-0----0---0---0----0---0---0----0---0---0----0---0---|-0----0---0---1----0----0----0---0---0----0---0---|

E|-----------------------------------------------------|--------------------------------------------------|
B|-----------------------------------------------------|--------------------------------------------------|
G|-----------------------------------------------------|--------------------------------------------------|
D|-----------------------------------------------------|--------------------------------------------------|
A|-----------------------------------------------------|--------------3----2------------------------------|
E|-0----0---0---0----0---0---0----0---0---0----0---0---|-0----0---0---1----0----0----0---0---0----0---0---|

E|-----------------------------------------------------|--------------------------------------------------|
B|-----------------------------------------------------|--------------------------------------------------|
G|-----------------------------------------------------|--------------------------------------------------|
D|-----------------------------------------------------|--------------------------------------------------|
A|-----------------------------------------------------|--------------3----2------------------------------|
E|-0----0---0---0----0---0---0----0---0---0----0---0---|-0----0---0---1----0----0----0---0---0----0---0---|

E|-----------------------------------------------------|--------------------------------------------------|
B|-----------------------------------------------------|--------------------------------------------------|
G|-----------------------------------------------------|--------------------------------------------------|
D|-----------------------------------------------------|--------------------------------------------------|
A|-----------------------------------------------------|--------------3----2------------------------------|
E|-0----0---0---0----0---0---0----0---0---0----0---0---|-0----0---0---1----0----0----0---0---0----0---0---|

E|-----------------------------------------------------|--------------------------------------------------|
B|-----------------------------------------------------|--------------------------------------------------|
G|-----------------------------------------------------|--------------------------------------------------|
D|-----------------------------------------------------|--------------------------------------------------|
A|-----------------------------------------------------|--------------3----2------------------------------|
E|-0----0---0---0----0---0---0----0---0---0----0---0---|-0----0---0---1----0----0----0---0---0----0---0---|

E|-----------------------------------------------------|-----------------------------------------------|
B|-----------------------------------------------------|-----------------------------------------------|
G|-----------------------------------------------------|-----------------------------------------------|
D|-----------------------------------------------------|-------------------------------------6----5----|
A|-----------------------------------------------------|--------------5----4-----------------4----3----|
E|-0----0---0---0----0---0---0----0---0---0----0---0---|-2----2---2---3----2----2----2---2-------------|

E|-----------------------------------------------|-----------------------------------------------|
B|-----------------------------------------------|-----------------------------------------------|
G|-----------------------------------------------|-----------------------------------------------|
D|-------------------------------------6----5----|-------------------------------------6----5----|
A|--------------5----4-----------------4----3----|--------------5----4-----------------4----3----|
E|-2----2---2---3----2----2----2---2-------------|-2----2---2---3----2----2----2---2-------------|

E|-----------------------------------------------|-----------------------------------------|
B|-----------------------------------------------|-----------------------------------------|
G|-----------------------------------------------|------%---------%---------%---------%----|
D|-------------------------------------6----5----|-4----%----5----%----6----%----7----%----|
A|--------------5----4-----------------4----3----|-2---------3---------4---------5---------|
E|-2----2---2---3----2----2----2---2-------------|-----------------------------------------|

E|-----------------------------------------|---------------------|---------|-----------------------------------------|
B|-----------------------------------------|---------------------|---------|-----------------------------------------|
G|------%---------%---------%---------%----|---------------------|---------|-----------------------------------------|
D|-5----%----6----%----7----%----8----%----|------4---------3----|-3-------|-2----2----3----2---------4---------3----|
A|-3---------4---------5---------6---------|------2---------1----|-1-------|-2----2----3----2---------2---------1----|
E|-----------------------------------------|-0---------0---------|---------|-0----0----1----0----X---------X---------|

E|---------|-----------------------------------------|---------|-----------------------------------------|
B|---------|-----------------------------------------|---------|-----------------------------------------|
G|---------|-----------------------------------------|---------|-----------------------------------------|
D|-3-------|-2----2----3----2---------6---------5----|-5-------|-4----4----5----4---------6---------5----|
A|-1-------|-2----2----3----2---------4---------3----|-3-------|-4----4----5----4---------4---------3----|
E|---------|-0----0----1----0----X---------X---------|---------|-2----2----3----2----X---------X---------|

E|---------|-----------------------------------------------|----------------------------|
B|---------|-----------------------------------------------|----------------------------|
G|---------|-----------------------------------------------|----------------------------|
D|-5-------|-----------------------------------------------|------4---------3----3------|
A|-3-------|--------------5----4-----------------5----4----|------2---------1----1------|
E|---------|-2----2---2---3----2----2----2---2---3----2----|-X---------X----------------|

E|----------------------------|---------|-------------------------------------|--------------------------------------------|
B|----------------------------|---------|-------------------------------------|--------------------------------------------|
G|------------------%---------|---------|------%---------%---------%----------|--------------------------------------------|
D|-3------3----6----%----5----|-5-------|-5----%----6----%----7----%----8-----|-----------------------------4---------3----|
A|-1------1----4---------3----|-3-------|-3---------4---------5---------6-----|--------------3----2---------2---------1----|
E|----------------------------|---------|-------------------------------------|-X----X---X---1----0----X---------X---------|

E|----------------------------------------------|--------------------------------------------|
B|----------------------------------------------|--------------------------------------------|
G|----------------------------------------------|--------------------------------------------|
D|-3--------------------------------------------|-----------------------------4---------3----|
A|-1------------5---7---5---0---7-----7----7----|--------------3----2---------2---------1----|
E|------5---7-----------------------------------|-X----X---X---1----0----X---------X---------|

E|------------------------------------------|-------------------------------|---------|
B|------------------------------------------|-------------------------------|---------|
G|------------------------------------------|-------------------------------|---------|
D|-3----------------------------------------|-------------------------------|---------|
A|-1------------5---7---5---0---7-----7-----|-7------5---------5---5---4----|-4-------|
E|------5---7-------------------------------|--------3----0----3---3---2----|-2-------|

E|-----------------------------------------|---------|---------|---------|---------|
B|-----------------------------------------|---------|---------|---------|---------|
G|------%---------%---------%---------%----|-%-------|-%-------|-%-------|-%-------|
D|-2----%----2----%----2----%----2----%----|-%-------|-%-------|-%-------|-%-------|
A|-2---------2---------2---------2---------|---------|---------|---------|---------|
E|-0---------0---------0---------0---------|---------|---------|---------|---------|

E|---------|---------|---------|---------|---------|---------|---------|---------|----------------------|
B|---------|---------|---------|---------|---------|---------|---------|---------|----------------------|
G|-%-------|-%-------|-%-------|-%-------|-%-------|-%-------|-%-------|-%-------|-12--12--9-------9----|
D|-%-------|-%-------|-%-------|-%-------|-%-------|-%-------|-%-------|-%-------|----------------------|
A|---------|---------|---------|---------|---------|---------|---------|---------|-10--10--7-------7----|
E|---------|---------|---------|---------|---------|---------|---------|---------|----------------------|

E|----------------------|-----------------------|---------------|---------------------------------------|
B|----------------------|-----------------------|---------------|---------------------------------------|
G|-12--12--9-------9----|-9------16--16--9------|-9-------------|---------------------------------------|
D|----------------------|-----------------------|---------------|--------------------9---9--------------|
A|-10--10--7-------7----|-7------14--14--7------|-7-------2-----|-10--10--7------------------7----------|
E|----------------------|-----------------------|---------------|--------------0------------------0-----|

E|-----------------------------------------------|---------------------------------------|
B|-----------------------------------------------|---------------------------------------|
G|-----------------------------------------------|---------------------------------------|
D|--------------9----------------------7---------|---------------------------------------|
A|-10--10--7---------7----10--10--7---------7----|-10--10--7----------5---5---7----------|
E|-----------------------------------------------|--------------0------------------0-----|

E|----------------------------------------------|---------------------------------------|
B|----------------------------------------------|---------------------------------------|
G|----------------------------%-----%-----------|---------------------------------------|
D|--------------9-------------%-----%-----------|---------------------------------------|
A|-10--10--7---------7----2---------------------|-----2---2----2-----3---2---2----2-----|
E|------------------------0-------------5---3---|-2---0---0----0-----1---0---0----0-----|

E|-------------------------------------------|---------------------------------------|
B|-------------------------------------------|---------------------------------------|
G|-------------------------------------------|---------------------------------------|
D|-------------------------------------------|---------------------------------------|
A|-3---2---2----5----2----3---2---2----2-----|-3---2---2----2-----3---2---2----2-----|
E|-1---0---0----3----0----1---0---0----0-----|-1---0---0----0-----1---0---0----0-----|

E|-------------------------------------------|---------------------------------------|
B|-------------------------------------------|---------------------------------------|
G|-------------------------------------------|---------------------------------------|
D|-------------------------------------------|---------------------------------------|
A|-3---2---2----5----2----3---2---2----2-----|-3---2---2----2-----3---2---2----2-----|
E|-1---0---0----3----0----1---0---0----0-----|-1---0---0----0-----1---0---0----0-----|

E|-------------------------------------------|---------------------------------------|
B|-------------------------------------------|---------------------------------------|
G|-------------------------------------------|---------------------------------------|
D|-------------------------------------------|---------------------------------------|
A|-3---2---2----5----2----3---2---2----2-----|-3---2---2----2-----3---2---2----2-----|
E|-1---0---0----3----0----1---0---0----0-----|-1---0---0----0-----1---0---0----0-----|

E|-------------------------------------------|---------------------------------------|
B|-------------------------------------------|---------------------------------------|
G|-------------------------------------------|---------------------------------------|
D|-------------------------------------------|---------------------------------------|
A|-3---2---2----5----2----3---2---2----2-----|-3-------3----3-----3-------3----3-----|
E|-1---0---0----3----0----1---0---0----0-----|-1---0---1----1-----1---0---1----1-----|

E|----------------------------------------------|---------------------------------------|
B|----------------------------------------------|---------------------------------------|
G|----------------------------------------------|---------------------------------------|
D|----------------------------------------------|---------------------------------------|
A|-3-------3----5-------5--------3---3----3-----|-3-------3----3-----3-------3----3-----|
E|-1---0---1----3---0---3----0---1---1----1-----|-1---0---1----1-----1---0---1----1-----|

E|-----------------------------------------------------|---------------------------------------|
B|-----------------------------------------------------|---------------------------------------|
G|-----------------------------------------------------|---------------------------------------|
D|-----------------------------------------------------|--------------------9---9--------------|
A|-3-------3----5-------5----5------------2------------|-10--10--7------------------7----------|
E|-1---0---1----3---0---3----3---0---0----0----1---7---|--------------0------------------0-----|

E|--------------------------------------------------|-----------------------------------------------------|
B|--------------------------------------------------|-----------------------------------------------------|
G|--------------------------------------------------|-----------------------------------------------------|
D|--------------9----------------------7------------|--------------9-------------------------9------------|
A|-10--10--7---------7----10--10--7-----------------|-10--7----7-------7----7---10--7----7-------7--------|
E|------------------------------------------3---7---|-------------------------------------------------0---|

E|-------------|--------------------------------------------------|-------------|-----------------------------------------------------|
B|-------------|--------------------------------------------------|-------------|-----------------------------------------------------|
G|-------------|--------------------------------------------------|-------------|-----------------------------------------------------|
D|-9-----------|--------------------------------------------------|-------------|--------------9-------------------------9------------|
A|-7-----5-----|--------------9-------------------------9---------|-9-----7-----|-10--7----7-------7----7---10--7----7-------7--------|
E|-0-----3-----|-10--7----7-------7----7---10--7----7-------7-----|-7-----5-----|-------------------------------------------------0---|

E|-------------|-----------------------------------------------------|-----------------------------------------------------|
B|-------------|-----------------------------------------------------|-----------------------------------------------------|
G|-------------|-----------------------------------------------------|-----------------------------------------------------|
D|-9-----------|-----------------------------------------------------|-----------------------------------------------------|
A|-7-----5-----|--------------9-------------------------9------------|--------------9-------------------------9------------|
E|-0-----3-----|-10--7----7-------7----7---10--7----7-------7----7---|-11--7----7-------7----7---11--7----7-------7----7---|

E|----------------------|---------------------------------------|-----------------------------------------------|
B|----------------------|---------------------------------------|-----------------------------------------------|
G|----------------------|---------------------------------------|-----------------------------------------------|
D|----------------------|--------------------9---9--------------|--------------9----------------------7---------|
A|-5-------5------------|-10--10--7------------------7----------|-10--10--7---------7----10--10--7---------7----|
E|-3-------3----3---7---|--------------0------------------0-----|-----------------------------------------------|

E|---------------------------------------|----------------------------------------------|
B|---------------------------------------|----------------------------------------------|
G|---------------------------------------|----------------------------%-----%-----------|
D|---------------------------------------|--------------9-------------%-----%-----------|
A|-10--10--7------------------7----------|-10--10--7---------7----2---------------------|
E|--------------0-----10--10-------0-----|------------------------0-------------5---3---|

E|---------------------------------------|-------------------------------------------|
B|---------------------------------------|-------------------------------------------|
G|---------------------------------------|-------------------------------------------|
D|---------------------------------------|-------------------------------------------|
A|-3---2---2----2-----3---2---2----2-----|-3---2---2----5----2----3---2---2----2-----|
E|-1---0---0----0-----1---0---0----0-----|-1---0---0----3----0----1---0---0----0-----|

E|---------------------------------------|-------------------------------------------|
B|---------------------------------------|-------------------------------------------|
G|---------------------------------------|-------------------------------------------|
D|---------------------------------------|-------------------------------------------|
A|-3---2---2----2-----3---2---2----2-----|-3---2---2----5----2----3---2---2----2-----|
E|-1---0---0----0-----1---0---0----0-----|-1---0---0----3----0----1---0---0----0-----|

E|---------------------------------------|----------------------------------------------|
B|---------------------------------------|----------------------------------------------|
G|---------------------------------------|----------------------------------------------|
D|---------------------------------------|----------------------------------------------|
A|-3-------3----3-----3-------3----3-----|-3-------3----5-------5--------3---3----3-----|
E|-1---0---1----1-----1---0---1----1-----|-1---0---1----3---0---3----0---1---1----1-----|

E|---------------------------------------|-----------------------------------------------------|
B|---------------------------------------|-----------------------------------------------------|
G|---------------------------------------|-----------------------------------------------------|
D|---------------------------------------|-----------------------------------------------------|
A|-3-------3----3-----3-------3----3-----|-3-------3----5-------5----5------------2------------|
E|-1---0---1----1-----1---0---1----1-----|-1---0---1----3---0---3----3---0---0----0----1---7---|

E|---------------------------------------|--------------------------------------------------|
B|---------------------------------------|--------------------------------------------------|
G|---------------------------------------|--------------------------------------------------|
D|--------------------9---9--------------|--------------9----------------------7------------|
A|-10--10--7------------------7----------|-10--10--7---------7----10--10--7-----------------|
E|--------------0------------------0-----|------------------------------------------3---7---|

E|-----------------------------------------------------|-------------|--------------------------------------------------|
B|-----------------------------------------------------|-------------|--------------------------------------------------|
G|-----------------------------------------------------|-------------|--------------------------------------------------|
D|--------------9-------------------------9------------|-9-----------|--------------------------------------------------|
A|-10--7----7-------7----7---10--7----7-------7--------|-7-----5-----|--------------9-------------------------9---------|
E|-------------------------------------------------0---|-0-----3-----|-10--7----7-------7----7---10--7----7-------7-----|

E|-------------|-----------------------------------------------------|-------------|
B|-------------|-----------------------------------------------------|-------------|
G|-------------|-----------------------------------------------------|-------------|
D|-------------|--------------9-------------------------9------------|-9-----------|
A|-9-----7-----|-10--7----7-------7----7---10--7----7-------7--------|-7-----5-----|
E|-7-----5-----|-------------------------------------------------0---|-0-----3-----|

E|-----------------------------------------------------|-----------------------------------------------------|
B|-----------------------------------------------------|-----------------------------------------------------|
G|-----------------------------------------------------|-----------------------------------------------------|
D|-----------------------------------------------------|-----------------------------------------------------|
A|--------------9-------------------------9------------|--------------9-------------------------9------------|
E|-10--7----7-------7----7---10--7----7-------7----7---|-11--7----7-------7----7---11--7----7-------7----7---|

E|---------|---------|---------|---------------------------------------|-----------------------------------------------|
B|---------|---------|---------|---------------------------------------|-----------------------------------------------|
G|---------|---------|---------|---------------------------------------|-----------------------------------------------|
D|---------|---------|-4-------|--------------------9---9--------------|--------------9----------------------7---------|
A|-5-------|-2-------|-2-------|-10--10--7------------------7----------|-10--10--7---------7----10--10--7---------7----|
E|-3-------|-0-------|---------|--------------0------------------0-----|-----------------------------------------------|

E|---------|---------|---------------------------------------|-----------------------------------------------|
B|---------|---------|---------------------------------------|-----------------------------------------------|
G|---------|---------|---------------------------------------|-----------------------------------------------|
D|---------|-4-------|--------------------9---9--------------|--------------9----------------------7---------|
A|-5-------|-2-------|-10--10--7------------------7----------|-10--10--7---------7----10--10--7---------7----|
E|-3-------|---------|--------------0------------------0-----|-----------------------------------------------|

E|---------|---------|---------------------------------------|-----------------------------------------------|
B|---------|---------|---------------------------------------|-----------------------------------------------|
G|---------|---------|---------------------------------------|-----------------------------------------------|
D|---------|-4-------|--------------------9---9--------------|--------------9----------------------7---------|
A|-5-------|-2-------|-10--10--7------------------7----------|-10--10--7---------7----10--10--7---------7----|
E|-3-------|---------|--------------0------------------0-----|-----------------------------------------------|

E|---------|---------|---------------------------------------------------------------------|
B|---------|---------|---------------------------------------------------------------------|
G|---------|---------|---------------------------------------------------------------------|
D|---------|-4-------|-4---5--4--------------------------4---5--4--------------------------|
A|-5-------|-2-------|-----------7---5---4---2---------------------7---5---4---2-----------|
E|-3-------|---------|---------------------------5---3-----------------------------5---3---|

E|---------------------------------------|-------------------------------------------|
B|---------------------------------------|-------------------------------------------|
G|---------------------------------------|-------------------------------------------|
D|---------------------------------------|-------------------------------------------|
A|-----2---2----2-----3---2---2----2-----|-3---2---2----5----2----3---2---2----2-----|
E|-2---0---0----0-----1---0---0----0-----|-1---0---0----3----0----1---0---0----0-----|

E|---------------------------------------|-------------------------------|----------------------------------------|
B|---------------------------------------|-------------------------------|----------------------------------------|
G|---------------------------------------|-------------------------------|----------------------------------------|
D|---------------------------------------|-------------------------------|----------------------------------------|
A|-3---2---2----2-----3---2---2----2-----|-3---2---2----5----2----2------|-2------10--7---7---7---10--7---7---7---|
E|-1---0---0----0-----1---0---0----0-----|-1---0---0----3----0----0------|-0--------------------------------------|

E|-----------------------------------------------------|-------------|-----------------------------------------------------|
B|-----------------------------------------------------|-------------|-----------------------------------------------------|
G|-----------------------------------------------------|-------------|-----------------------------------------------------|
D|--------------9-------------------------9------------|-9-----------|-----------------------------------------------------|
A|-10--7----7-------7----7---10--7----7-------7--------|-7-----5-----|--------------9-------------------------9------------|
E|-------------------------------------------------0---|-0-----3-----|-10--7----7-------7----7---10--7----7-------7----7---|

E|-----------------------------------------------------|---------|----------------------|
B|-----------------------------------------------------|---------|----------------------|
G|-----------------------------------------------------|---------|-12--12--9-------9----|
D|-----------------------------------------------------|---------|----------------------|
A|--------------9-------------------------9------------|-5-------|-10--10--7-------7----|
E|-11--7----7-------7----7---11--7----7-------7----7---|-3-------|----------------------|

E|----------------------|-----------------------|--------------------------------|---------------------------------------|
B|----------------------|-----------------------|--------------------------------|---------------------------------------|
G|-12--12--9-------9----|-9------16--16--9------|-9------9--------%-----%----%---|---------------------------------------|
D|----------------------|-----------------------|-------------2---%-----%----%---|---------------------------------------|
A|-10--10--7-------7----|-7------14--14--7------|-7------7----2------------------|-3---2---2----2-----3---2---2----2-----|
E|----------------------|-----------------------|-------------0------------------|-1---0---0----0-----1---0---0----0-----|

E|-------------------------------------------|---------------------------------------|
B|-------------------------------------------|---------------------------------------|
G|-------------------------------------------|---------------------------------------|
D|-------------------------------------------|---------------------------------------|
A|-3---2---2----5----2----3---2---2----2-----|-3---2---2----2-----3---2---2----2-----|
E|-1---0---0----3----0----1---0---0----0-----|-1---0---0----0-----1---0---0----0-----|

E|-------------------------------------------|-----------------------------------------------------|
B|-------------------------------------------|-----------------------------------------------------|
G|-------------------------------------------|-----------------------------------------------------|
D|-------------------------------------------|--------------9-------------------------9------------|
A|-3---2---2----5----2----3---2---2----2-----|-10--7----7-------7----7---10--7----7-------7--------|
E|-1---0---0----3----0----1---0---0----0-----|-------------------------------------------------0---|

E|-------------|--------------------------------------------------|-------------|-----------------------------------------------------|
B|-------------|--------------------------------------------------|-------------|-----------------------------------------------------|
G|-------------|--------------------------------------------------|-------------|-----------------------------------------------------|
D|-9-----------|--------------------------------------------------|-4-----2-----|--------------9-------------------------9------------|
A|-7-----5-----|--------------9-------------------------9---------|-2-----0-----|-10--7----7-------7----7---10--7----7-------7--------|
E|-0-----3-----|-10--7----7-------7----7---10--7----7-------7-----|-------------|-------------------------------------------------0---|

E|-------------|-----------------------------------------------------|-----------------------------------------------------|
B|-------------|-----------------------------------------------------|-----------------------------------------------------|
G|-------------|-----------------------------------------------------|-----------------------------------------------------|
D|-9-----------|-----------------------------------------------------|-----------------------------------------------------|
A|-7-----5-----|--------------9-------------------------9------------|--------------9-------------------------9------------|
E|-0-----3-----|-10--7----7-------7----7---10--7----7-------7----7---|-11--7----7-------7----7---11--7----7-------7----7---|

E|----------------------|-----------------------------------------------------|-----------------------------------------------------|
B|----------------------|-----------------------------------------------------|-----------------------------------------------------|
G|----------------------|-12--12--9-------------------------------------------|-----------------------------------------------------|
D|----------------------|-----------------------------------------------------|-----------------------------------------------------|
A|-5-------5------------|-10--10--7-------------------------------------------|--------------2--------------------------------------|
E|-3-------3----3---10--|--------------7---0----0---3---0----0---0----0---0---|-3---0----0-------0----0---3---0----0---0----0---0---|

E|-----------------------------------------------------|-----------------------------------------------------|
B|-----------------------------------------------------|-----------------------------------------------------|
G|-----------------------------------------------------|-----------------------------------------------------|
D|-----------------------------------------------------|--------------9-------------------------9------------|
A|--------------9--------------------------------------|-10--7----7-------7----7---10--7----7-------7----7---|
E|-10--7----7-------7----7---10--7----7---7----7---7---|-----------------------------------------------------|

E|-----------------------------------------------------|-----------------------------------------------------------------|
B|-----------------------------------------------------|-----------------------------------------------------------------|
G|-----------------------------------------------------|-----------------------------------------------------------------|
D|--------------9-------------------------9------------|-----------------9-------------------------------9---------------|
A|-10--7----7-------7----7---10--7----7-------7----7---|-10--7---7---7-------7---7---7---10--7---7---7-------7---7---7---|
E|-----------------------------------------------------|-----------------------------------------------------------------|

E|---------------------------------------------------------------------|------------------------------------------|
B|---------------------------------------------------------------------|------------------------------------------|
G|---------------------------------------------------------------------|-----------------------------------%------|
D|-4---5--4--------------------------4---5--4--------------------------|-4---5--4--------------------------%------|
A|-----------7---5---4---2---------------------7---5---4---2-----------|-----------7---5---4---2------------------|
E|---------------------------5---3-----------------------------5---3---|---------------------------5---3----------|

E|---------|---------|---------|---------|---------|---------|---------|---------|---------|
B|---------|---------|---------|---------|---------|---------|---------|---------|---------|
G|-%-------|-%-------|-%-------|-%-------|-%-------|-%-------|-%-------|-%-------|-%-------|
D|-%-------|-%-------|-%-------|-%-------|-%-------|-%-------|-%-------|-%-------|-%-------|
A|---------|---------|---------|---------|---------|---------|---------|---------|---------|
E|---------|---------|---------|---------|---------|---------|---------|---------|---------|

E|---------|---------|---------|------------------------|---------|---------|---------|
B|---------|---------|---------|------------------------|---------|---------|---------|
G|-%-------|-%-------|-%-------|-%------%-----%----2----|-2-------|-2-------|-2-------|
D|-%-------|-%-------|-%-------|-%------%-----%----3----|-3-------|-3-------|-2-------|
A|---------|---------|---------|-------------------0----|-0-------|-0-------|-0-------|
E|---------|---------|---------|------------------------|---------|---------|---------|

E|--------------------------------------------|---------|---------|---------|---------|
B|--------------------------------------------|---------|---------|---------|---------|
G|-2----2---2---2----2----2----2----2----2----|-2-------|-2-------|-2-------|-2-------|
D|-2----2---2---2----2----2----2----2----3----|-3-------|-3-------|-2-------|-2-------|
A|-0----0---0---0----0----0----0----0----0----|-0-------|-0-------|-0-------|-0-------|
E|--------------------------------------------|---------|---------|---------|---------|

E|----------------------------|---------|----------------------------|---------|----------------------------|
B|----------------------------|---------|----------------------------|---------|----------------------------|
G|-2--------------------------|---------|----------------------------|---------|----------------------------|
D|-2----3---------3-----------|---------|------2---------2-----------|---------|------3---------3-----------|
A|-0---------5---------0------|-0-------|-0---------3---------0------|-0-------|-0---------5---------0------|
E|----------------------------|---------|----------------------------|---------|----------------------------|

E|---------|----------------------------|---------|---------------------------------|
B|---------|----------------------------|---------|---------------------------------|
G|---------|----------------------------|---------|---------------------------------|
D|---------|------2---------2-----------|---------|------3---------3-----------3----|
A|-0-------|-0---------3---------0------|-0-------|-0---------5---------0-----------|
E|---------|----------------------------|---------|---------------------------------|

E|-------------------|---------------------------------|-------------------|---------------------------------|
B|-------------------|---------------------------------|-------------------|---------------------------------|
G|-------------------|---------------------------------|-------------------|---------------------------------|
D|------3------------|------2---------2-----------2----|------2----7-------|-7----3---------3-----------3----|
A|-5---------0-------|-0---------3---------0-----------|-3-----------------|-----------5---------0-----------|
E|-------------------|---------------------------------|-------------------|---------------------------------|

E|-------------------|---------------------------------|-------------------|---------------------------------|
B|-------------------|---------------------------------|-------------------|---------------------------------|
G|-------------------|---------------------------------|-------------------|---------------------------------|
D|------3------------|------2---------2-----------2----|------2----7-------|-7----3---------3-----------3----|
A|-5---------0-------|-0---------3---------0-----------|-3-----------------|-----------5---------0-----------|
E|-------------------|---------------------------------|-------------------|---------------------------------|

E|----------------------------|---------------------------------|----------------------------|
B|----------------------------|---------------------------------|----------------------------|
G|----------------------------|-%-------------------------------|----------------------------|
D|------3----------------5----|-%----2---------2-----------2----|------2----7------7----7----|
A|-5---------0------3---------|-----------3---------0-----------|-3--------------------------|
E|----------------------------|---------------------------------|----------------------------|

E|---------------------------------|----------------------------|---------------------------------|
B|---------------------------------|----------------------------|---------------------------------|
G|-%-------------------------------|----------------------------|-%-------------------------------|
D|-%----3---------3-----------3----|------3----------------5----|-%----2---------2-----------2----|
A|-----------5---------0-----------|-5---------0------3---------|-----------3---------0-----------|
E|---------------------------------|----------------------------|---------------------------------|

E|----------------------------|---------------------------------|----------------------------|
B|----------------------------|---------------------------------|----------------------------|
G|----------------------------|-%-------------------------------|----------------------------|
D|------2----7------7----7----|-%----3---------3-----------3----|------3----------------5----|
A|-3--------------------------|-----------5---------0-----------|-5---------0------3---------|
E|----------------------------|---------------------------------|----------------------------|

E|---------------------------------|----------------------------|---------------------------------|
B|---------------------------------|----------------------------|---------------------------------|
G|-%-------------------------------|----------------------------|-%-------------------------------|
D|-%----2---------2-----------2----|------2----7------7----7----|-%----3---------3-----------3----|
A|-----------3---------0-----------|-3--------------------------|-----------5---------0-----------|
E|---------------------------------|----------------------------|---------------------------------|

E|----------------------------|---------------------------------|----------------------------|
B|----------------------------|---------------------------------|----------------------------|
G|----------------------------|-%-------------------------------|----------------------------|
D|------3----------------5----|-%----2---------2-----------2----|------2----7------7----7----|
A|-5---------0------3---------|-----------3---------0-----------|-3--------------------------|
E|----------------------------|---------------------------------|----------------------------|

E|-----------------------------------------|-------------------------------------|-------------------------------------|
B|-----------------------------------------|-------------------------------------|-------------------------------------|
G|-----------------------------------------|-------------------------------------|-------------------------------------|
D|-----------5-----------------------------|-----------5---------5---------------|-------------------------------2-----|
A|-0----3-------------------5---------7----|-0----3--------------5----7----7-----|-4----4----0----2----3----4----2-----|
E|----------------0----3---------5---------|----------------0--------------------|-2----2------------------------0-----|

E|-------------------------------------|-------------------------------------|-------------------------------------|
B|-------------------------------------|-------------------------------------|-------------------------------------|
G|------2----2----%----2----4----4-----|-------------------------------------|------2----2----3----4---------------|
D|------2----2----%----2----4----4-----|-------------------------------2-----|------2----2----3----4----2-----2----|
A|------0----0---------0---------------|-4----4----0----2----3----4----2-----|------0----0----1----2----2-----2----|
E|-0-----------------------------------|-2----2------------------------0-----|-0------------------------0-----0----|

E|-------------------------------------|-------------------------------------|-------------------------------------|
B|-------------------------------------|-------------------------------------|-------------------------------------|
G|-------------------------------------|------2----2----%----2----4----4-----|-------------------------------------|
D|-------------------------------2-----|------2----2----%----2----4----4-----|-------------------------------2-----|
A|-4----4----0----2----3----4----2-----|------0----0---------0---------------|-4----4----0----2----3----4----2-----|
E|-2----2------------------------0-----|-0-----------------------------------|-2----2------------------------0-----|

E|-------------------------------------|-------------------------------------|-------------------------------------|
B|-------------------------------------|-------------------------------------|-------------------------------------|
G|------2----2----3----4---------------|-------------------------------------|--------------------------------2----|
D|------2----2----3----4----2----------|---------------------2---------------|---------------------2----------3----|
A|------0----0----1----2----2-----3----|-3-------------------2----------3----|-3-------------------2----------0----|
E|-0------------------------0-----0----|-0----0----0----0----0-----0----0----|-0----0----0----0----0-----0---------|

E|---------------------------------|-------------------|---------------------------------|
B|---------------------------------|-------------------|---------------------------------|
G|-2-------------------------------|-------------------|---------------------------------|
D|-3----3---------3-----------3----|------3------------|------2---------2-----------2----|
A|-0---------5---------0-----------|-5---------0-------|-0---------3---------0-----------|
E|---------------------------------|-------------------|---------------------------------|

E|-------------------|---------------------------------|-------------------|---------------------------------|
B|-------------------|---------------------------------|-------------------|---------------------------------|
G|-------------------|---------------------------------|-------------------|---------------------------------|
D|------2----7-------|-7----3---------3-----------3----|------3------------|------2---------2-----------2----|
A|-3-----------------|-----------5---------0-----------|-5---------0-------|-0---------3---------0-----------|
E|-------------------|---------------------------------|-------------------|---------------------------------|

E|-------------------|---------------------------------|----------------------------|
B|-------------------|---------------------------------|----------------------------|
G|-------------------|---------------------------------|----------------------------|
D|------2----7-------|-7----3---------3-----------3----|------3----------------5----|
A|-3-----------------|-----------5---------0-----------|-5---------0------3---------|
E|-------------------|---------------------------------|----------------------------|

E|---------------------------------|----------------------------|---------------------------------|
B|---------------------------------|----------------------------|---------------------------------|
G|-%-------------------------------|----------------------------|-%-------------------------------|
D|-%----2---------2-----------2----|------2----7------7----7----|-%----3---------3-----------3----|
A|-----------3---------0-----------|-3--------------------------|-----------5---------0-----------|
E|---------------------------------|----------------------------|---------------------------------|

E|----------------------------|---------------------------------|----------------------------|
B|----------------------------|---------------------------------|----------------------------|
G|----------------------------|-%-------------------------------|----------------------------|
D|------3----------------5----|-%----2---------2-----------2----|------2----7------7----7----|
A|-5---------0------3---------|-----------3---------0-----------|-3--------------------------|
E|----------------------------|---------------------------------|----------------------------|

E|---------------------------------|----------------------------|---------------------------------|
B|---------------------------------|----------------------------|---------------------------------|
G|-%-------------------------------|----------------------------|-%-------------------------------|
D|-%----3---------3-----------3----|------3----------------5----|-%----2---------2-----------2----|
A|-----------5---------0-----------|-5---------0------3---------|-----------3---------0-----------|
E|---------------------------------|----------------------------|---------------------------------|

E|----------------------------|---------------------------------|----------------------------|
B|----------------------------|---------------------------------|----------------------------|
G|----------------------------|-%-------------------------------|----------------------------|
D|------2----7------7----7----|-%----3---------3-----------3----|------3----------------5----|
A|-3--------------------------|-----------5---------0-----------|-5---------0------3---------|
E|----------------------------|---------------------------------|----------------------------|

E|---------------------------------|----------------------------|-----------------------------------------|
B|---------------------------------|----------------------------|-----------------------------------------|
G|-%-------------------------------|----------------------------|-----------------------------------------|
D|-%----2---------2-----------2----|------2----7------7----7----|-----------5-----------------------------|
A|-----------3---------0-----------|-3--------------------------|-0----3-------------------5---------7----|
E|---------------------------------|----------------------------|----------------0----3---------5---------|

E|-------------------------------------|-------------------------------------|-------------------------------------|
B|-------------------------------------|-------------------------------------|-------------------------------------|
G|-------------------------------------|-------------------------------------|------2----2----%----2----4----4-----|
D|-----------5---------5---------------|-------------------------------2-----|------2----2----%----2----4----4-----|
A|-0----3--------------5----7----7-----|-4----4----0----2----3----4----2-----|------0----0---------0---------------|
E|----------------0--------------------|-2----2------------------------0-----|-0-----------------------------------|

E|-------------------------------------|-------------------------------------|-------------------------------------|
B|-------------------------------------|-------------------------------------|-------------------------------------|
G|-------------------------------------|------2----2----3----4---------------|-------------------------------------|
D|-------------------------------2-----|------2----2----3----4----2-----2----|-------------------------------2-----|
A|-4----4----0----2----3----4----2-----|------0----0----1----2----2-----2----|-4----4----0----2----3----4----2-----|
E|-2----2------------------------0-----|-0------------------------0-----0----|-2----2------------------------0-----|

E|-------------------------------------|-------------------------------------|-------------------------------------|
B|-------------------------------------|-------------------------------------|-------------------------------------|
G|------2----2----%----2----4----4-----|-------------------------------------|------2----2----3----4---------------|
D|------2----2----%----2----4----4-----|-------------------------------2-----|------2----2----3----4----2----------|
A|------0----0---------0---------------|-4----4----0----2----3----4----2-----|------0----0----1----2----2-----3----|
E|-0-----------------------------------|-2----2------------------------0-----|-0------------------------0-----0----|

E|-------------------------------------|-------------------------------------|---------|
B|-------------------------------------|-------------------------------------|---------|
G|-------------------------------------|--------------------------------2----|-%-------|
D|---------------------2---------------|---------------------2----------3----|-%-------|
A|-3-------------------2----------3----|-3-------------------2----------0----|---------|
E|-0----0----0----0----0-----0----0----|-0----0----0----0----0-----0---------|---------|

E|---------|---------|---------|---------|---------|---------|---------|---------|---------|
B|---------|---------|---------|---------|---------|---------|---------|---------|---------|
G|-%-------|-%-------|-%-------|-%-------|-%-------|-%-------|-%-------|-%-------|-%-------|
D|-%-------|-%-------|-%-------|-%-------|-%-------|-%-------|-%-------|-%-------|-%-------|
A|---------|---------|---------|---------|---------|---------|---------|---------|---------|
E|---------|---------|---------|---------|---------|---------|---------|---------|---------|

E|---------|---------|---------|---------|---------|---------|---------|---------|---------|
B|---------|---------|---------|---------|---------|---------|---------|---------|---------|
G|-%-------|-%-------|-%-------|-%-------|-%-------|-%-------|-%-------|-%-------|-%-------|
D|-%-------|-%-------|-%-------|-%-------|-%-------|-%-------|-%-------|-%-------|-%-------|
A|---------|---------|---------|---------|---------|---------|---------|---------|---------|
E|---------|---------|---------|---------|---------|---------|---------|---------|---------|

E|---------|----------------------------0----|-0--------------------------|-------------------------------------|
B|---------|----------------------3-----3----|-3----3----3----------------|-------------------------------------|
G|-%-------|-----------------2---------------|----------------2----2------|----------------------0----2----2----|
D|-%-------|-------2----3--------------------|----------------------------|-------0----2----2-------------------|
A|---------|-0-------------------------------|----------------------------|-0-----------------------------------|
E|---------|---------------------------------|----------------------------|-------------------------------------|

E|-0-------|----------------------------0----|-0--------------------------|-------------------------------------|
B|-1-------|----------------------3-----3----|-3----3----3----------------|-------------------------------------|
G|---------|-----------------2---------------|----------------2----2------|----------------------0----2----2----|
D|---------|-------2----3--------------------|----------------------------|-------0----2----2-------------------|
A|---------|-0-------------------------------|----------------------------|-0-----------------------------------|
E|---------|---------------------------------|----------------------------|-------------------------------------|

E|-0-------|----------------------------0----|-0--------------------------|-------------------------------------|
B|-1-------|----------------------3-----3----|-3----3----3----------------|-------------------------------------|
G|---------|-----------------2---------------|----------------2----2------|----------------------0----2----2----|
D|---------|-------2----3--------------------|----------------------------|-------0----2----2-------------------|
A|---------|-0-------------------------------|----------------------------|-0-----------------------------------|
E|---------|---------------------------------|----------------------------|-------------------------------------|

E|-0-------|----------------------|---------------------------------|-----------------------|
B|-1-------|-10------11--10--11---|-11----11---11---11----11---10---|-10--11--10-----10-----|
G|---------|-10------12--10--12---|-12----12---12---12----12---9----|-9---12--9------9------|
D|---------|----------------------|---------------------------------|-----------------------|
A|---------|----------------------|---------------------------------|-----------------------|
E|---------|----------------------|---------------------------------|-----------------------|

E|---------------------------------------------|----------------------|-------------------------------------------|
B|-10--11--10--8---10--8---6---8---6------6----|-10------11--10--11---|-11----11--10--11---11---11--11--11--10----|
G|-9---10--9---7---9---7---5---7---5------5----|-10------12--10--12---|-12----12--10--12---12---12--12--12--10----|
D|---------------------------------------------|----------------------|-------------------------------------------|
A|---------------------------------------------|----------------------|-------------------------------------------|
E|---------------------------------------------|----------------------|-------------------------------------------|

E|---------------------------------------------|----------------------------------------------------|
B|-10--11--10-----10--11--10--8---10---8---10--|-8---6---8----6---8---6---5---6---5---1---5---1-----|
G|-9---10--9------9---10--9---7---9----7---9---|-7---5---7----5---7---5---4---5---4---2---4---2-----|
D|---------------------------------------------|----------------------------------------------------|
A|---------------------------------------------|----------------------------------------------------|
E|---------------------------------------------|----------------------------------------------------|

E|-13--10------10--13---13--10------10--13---13--10------10--|-13--10------10--13--10--13--10------10--13--10--13--10------10--|
B|-10--10--10--10--10---10--10--10--10--10---10--10--10--10--|-10--10--10--10--10--10--10--10--10--10--10--10--10--10--10--10--|
G|---------10-------------------10-------------------10------|---------10----------------------10----------------------10------|
D|-----------------------------------------------------------|-----------------------------------------------------------------|
A|-----------------------------------------------------------|-----------------------------------------------------------------|
E|-----------------------------------------------------------|-----------------------------------------------------------------|

E|-----------------------------------------------------------|-------------------------------------------------------|
B|-17--13------13--17---17--13------13--17---17--13------13--|-17--13------13--17--13--------------------------------|
G|-14--14--14--14--14---14--14--14--14--14---14--14--14--14--|-14--14--14--14--14--14--14--14--14--15--14--12--14----|
D|---------14-------------------14-------------------14------|---------14--------------14--14--14--15--14--12--14----|
A|-----------------------------------------------------------|-------------------------------------------------------|
E|-----------------------------------------------------------|-------------------------------------------------------|

E|-13--10------10--13---13--10------10--13---13--10------10--|-13--10------10--13--10--13--10------10--13--10--13---13---|
B|-10--10--10--10--10---10--10--10--10--10---10--10--10--10--|-10--10--10--10--10--10--10--10--10--10--10--10--10---10---|
G|---------10-------------------10-------------------10------|---------10----------------------10------------------------|
D|-----------------------------------------------------------|-----------------------------------------------------------|
A|-----------------------------------------------------------|-----------------------------------------------------------|
E|-----------------------------------------------------------|-----------------------------------------------------------|

E|-20--17------17--20---20--17------17--20---20--17------17--|-20---22---22---22---22----------|
B|-17--17--17--17--17---17--17--17--17--17---17--17--17--17--|-17---19---19---19---19----------|
G|---------17-------------------17-------------------17------|----------------------------%----|
D|-----------------------------------------------------------|----------------------------%----|
A|-----------------------------------------------------------|---------------------------------|
E|-----------------------------------------------------------|---------------------------------|

E|-----------------------------------------|-------------------------------------|---------|
B|-----------------------------------------|-------------------------------------|-16------|
G|-----------------------------------------|-------------------------------------|-16------|
D|-----------5-----------------------------|-----------5---------5---------------|---------|
A|-0----3-------------------5---------7----|-0----3--------------5----7----7-----|---------|
E|----------------0----3---------5---------|----------------0--------------------|---------|

E|-------------------------------|----------------------------------------|---------------------------------------|
B|-16----------------------------|----------------------------------------|---------------------------17-----17---|
G|-16-----16--14----14-------14--|-16----16---16---14----------------14---|-16--16--14---16--16--14---------------|
D|-----------------------16------|---------------------16--14---16--------|---------------------------------------|
A|-------------------------------|----------------------------------------|---------------------------------------|
E|-------------------------------|----------------------------------------|---------------------------------------|

E|-17-----17---17----17----|-17-----17---14----------|-------------------------|--------------------------------------|
B|-------------------------|-------------------17----|-17----16----16----16----|--------------------------------14----|
G|-------------------------|-------------------------|-------16----16----16----|-14-----------------------14----14----|
D|-------------------------|-------------------------|-------------------------|-----16----16---14---16---------------|
A|-------------------------|-------------------------|-------------------------|--------------------------------------|
E|-------------------------|-------------------------|-------------------------|--------------------------------------|

E|-------------------------------------|-------------------------------------|-------------------------------------|
B|-------------------------------------|-------------------------------------|-------------------------------------|
G|-------------------------------------|------2----2----%----2----4----4-----|-------------------------------------|
D|-------------------------------2-----|------2----2----%----2----4----4-----|-------------------------------2-----|
A|-4----4----0----2----3----4----2-----|------0----0---------0---------------|-4----4----0----2----3----4----2-----|
E|-2----2------------------------0-----|-0-----------------------------------|-2----2------------------------0-----|

E|-------------------------------------|-------------------------------------|-------------------------------------|
B|-------------------------------------|-------------------------------------|-------------------------------------|
G|------2----2----3----4---------------|-------------------------------------|------2----2----%----2----4----4-----|
D|------2----2----3----4----2-----2----|-------------------------------2-----|------2----2----%----2----4----4-----|
A|------0----0----1----2----2-----2----|-4----4----0----2----3----4----2-----|------0----0---------0---------------|
E|-0------------------------0-----0----|-2----2------------------------0-----|-0-----------------------------------|

E|-------------------------------------|-------------------------------------|-------------------------------------|
B|-------------------------------------|-------------------------------------|-------------------------------------|
G|-------------------------------------|------2----2----3----4---------------|-------------------------------------|
D|-------------------------------2-----|------2----2----3----4----2----------|---------------------2---------------|
A|-4----4----0----2----3----4----2-----|------0----0----1----2----2-----3----|-3-------------------2----------3----|
E|-2----2------------------------0-----|-0------------------------0-----0----|-0----0----0----0----0-----0----0----|

E|-------------------------------------|----------------------------|--------------------|
B|-------------------------------------|-----------2----------------|-------------5------|
G|-------------------------------------|-2---------2----------------|--------------------|
D|---------------------2----------2----|------X---------4----4------|-4------4-----------|
A|-3-------------------2----------2----|----------------------------|--------------------|
E|-0----0----0----0----0-----0----0----|----------------------------|--------------------|

E|-----2---2-------2--------2---2------------------|--------------------------------------------|
B|-5-----------5--------5-----------5---5----5-----|-5----5---5---5----5----5----5----5----5----|
G|-------------------------------------------------|--------------------------------------------|
D|-------------------------------------------------|--------------------------------------------|
A|-------------------------------------------------|--------------------------------------------|
E|-------------------------------------------------|--------------------------------------------|

E|----------------------------------------------|---------|-----------------------------------------------------------|
B|-5----5---2-----------------------------------|---------|------2------------------------2---5---4-------------------|
G|--------------4----4---2---4---4---2----------|---------|-4---------4---2-----------4---------------2-----------2---|
D|----------------------------------------4-----|-4-------|-------------------4---2-----------------------4---4-------|
A|----------------------------------------------|---------|-----------------------------------------------------------|
E|----------------------------------------------|---------|-----------------------------------------------------------|

E|-----------------------------------------------------------|--------------------------------------|
B|-----------------------------------------------------------|---------------------------------17---|
G|-5---4---2-----------2---4---2-------2---4---2-------2-----|-16----14---14---14-------------------|
D|-------------4---4---------------4---------------4---------|----------------------16----X---------|
A|-----------------------------------------------------------|--------------------------------------|
E|-----------------------------------------------------------|--------------------------------------|

E|------------------------------------14--|-17--14------14--17--14------14--17--14------14--17--14--14--14--17--14------14--X---17--14--|
B|-17----17--17---17---17---------17------|---------14--------------14--------------14------------------------------14------X-----------|
G|---------------------------X------------|---------------------------------------------------------------------------------------------|
D|----------------------------------------|---------------------------------------------------------------------------------------------|
A|----------------------------------------|---------------------------------------------------------------------------------------------|
E|----------------------------------------|---------------------------------------------------------------------------------------------|

E|-17----17----17--14------14--------|-17--14------14------------------------------------------------|
B|---------------------17------17----|---------17------17--14--14--14--17--14------------------------|
G|-----------------------------------|-----------------------------------------16--14--14--16--16----|
D|-----------------------------------|---------------------------------------------------------------|
A|-----------------------------------|---------------------------------------------------------------|
E|-----------------------------------|---------------------------------------------------------------|

E|-------------------------------------------------------------|--------------------------------------------------------------|
B|-------------14--16--14--------------------14--16------------|------------------------------------------14--14------16--14--|
G|-16--14------14--16--14------14-16-14------14--16--14---14---|------14--16--16--14----------16--14------14--14------16--14--|
D|---------16--------------16------------16--------------------|-16-------------------16--14----------X-----------X-----------|
A|-------------------------------------------------------------|--------------------------------------------------------------|
E|-------------------------------------------------------------|--------------------------------------------------------------|

E|-----------------------------------------------------------|----------------------------------------------------|
B|---------------------X-------------------------------------|----------------------------------------------------|
G|-16--14------14--14--X---16--14--16--14------14------------|-4-----4----4---4---4---4---4---4---4---4---4---4---|
D|---------16------------------------------16------16---16---|----------------------------------------------------|
A|-----------------------------------------------------------|----------------------------------------------------|
E|-----------------------------------------------------------|----------------------------------------------------|

E|-----------------------------------------------------------------|----------------------------------------|
B|-----------------------------------------------------------------|----------------------------------17----|
G|-4---4---4---4---4---4---4---4---4---4---4---4---4---4---4---4---|-4---------14---16---16---16--14--------|
D|-----------------------------------------------------------------|------16--------------------------------|
A|-----------------------------------------------------------------|----------------------------------------|
E|-----------------------------------------------------------------|----------------------------------------|

E|------14--------------------------------------------------------|-17--14------17--14------17--14--14--14-17-14--14--14-17-14------17--14--|
B|-17-------17--14------14--17--14--------------------------------|---------17----------14--------------------------------------17----------|
G|------------------16--------------16--14------14--16--16----16--|-------------------------------------------------------------------------|
D|------------------------------------------16--------------------|-------------------------------------------------------------------------|
A|----------------------------------------------------------------|-------------------------------------------------------------------------|
E|----------------------------------------------------------------|-------------------------------------------------------------------------|

E|-20--14------19--14------14--19--14--14------19--14------19--14------19--14--14--19--14--|
B|---------17----------17------------------17----------17----------17----------------------|
G|-----------------------------------------------------------------------------------------|
D|-----------------------------------------------------------------------------------------|
A|-----------------------------------------------------------------------------------------|
E|-----------------------------------------------------------------------------------------|

E|-19---17------------17----------------------------------------------------------|
B|-----------X----19------19--17--19--19--17--14--14--17--14--14--14--14----------|
G|------------------------------------------------------------------------16--14--|
D|--------------------------------------------------------------------------------|
A|--------------------------------------------------------------------------------|
E|--------------------------------------------------------------------------------|

E|-----------------------------------------------|-------------------------------------|
B|-------------16---16----16---------------------|---------------------13---14---------|
G|-14--14--16--16---16----16----14--14-----------|-----------14---16-------------------|
D|--------------------------------------16--16---|-16---16-----------------------14----|
A|-----------------------------------------------|-------------------------------------|
E|-----------------------------------------------|-------------------------------------|

E|-----------------------------------------|-------------------------------------|-------------------------------------|
B|------14---14--------14---16---16---16---|---------------------13---14---------|-------------------------------------|
G|------14---14--------14---16---16---16---|-----------14---16-------------------|------14---14---15---16--------------|
D|-X--------------X------------------------|-16---16-----------------------14----|-16-----------------------14----X----|
A|-----------------------------------------|-------------------------------------|-------------------------------------|
E|-----------------------------------------|-------------------------------------|-------------------------------------|

E|-14---14-----14-----|-14---14--14--14---14---14---14---14---X----|-14---14-----14----------|
B|-14---14-----14-----|-14---14--14--14---14---14---14---14---X----|-14---14-----14----------|
G|--------------------|--------------------------------------------|-------------------%-----|
D|--------------------|--------------------------------------------|-------------------%-----|
A|--------------------|--------------------------------------------|-------------------------|
E|--------------------|--------------------------------------------|-------------------------|

E|---------------------------------|---------|---------|---------|---------|---------|
B|---------------------------------|---------|---------|---------|---------|---------|
G|-%----2----2----3----4-----------|---------|-%-------|-%-------|-%-------|-%-------|
D|-%----2----2----3----4----2------|-2-------|-%-------|-%-------|-%-------|-%-------|
A|------0----0----1----2----2------|-2-------|---------|---------|---------|---------|
E|--------------------------0------|-0-------|---------|---------|---------|---------|

E|---------|--------------------------------|-------------------|---------------------------------|
B|---------|--------------------------------|-7----8----7-------|-7----8----------7-----7----8----|
G|-%-------|-%------------------7-----------|-7----9----7-------|-----------9---------------------|
D|-%-------|-%-----5--7----9----5-----9-----|-------------------|-----------------9---------------|
A|---------|-------3--5----7----------7-----|-------------------|---------------------------------|
E|---------|--------------------------------|-------------------|---------------------------------|

E|---------------|--------------------------------|-------------------|---------------------------------|
B|-7-------------|--------------------------------|-7----8----7-------|-7----8----------7-----7----8----|
G|-14------------|-%------------------7-----------|-7----9----7-------|-----------9---------------------|
D|---------9-----|-%-----5--7----9----5-----9-----|-------------------|-----------------9---------------|
A|---------9-----|-------3--5----7----------7-----|-------------------|---------------------------------|
E|---------7-----|--------------------------------|-------------------|---------------------------------|

E|---------------|---------|--------12-----|-12------12----|--------|--------|--------|
B|-7-------------|---------|---------------|---------------|--------|--------|--------|
G|-14------------|-%-------|-%-------------|---------------|-%------|-%------|-%------|
D|---------9-----|-%-------|-%-------------|---------------|-%------|-%------|-%------|
A|---------9-----|---------|---------------|---------------|--------|--------|--------|
E|---------7-----|---------|---------------|---------------|--------|--------|--------|

E|--------|--------|--------|--------|--------|--------|--------|--------|--------|
B|--------|--------|--------|--------|--------|--------|--------|--------|--------|
G|-%------|-%------|-%------|-%------|-%------|-%------|-%------|-%------|-%------|
D|-%------|-%------|-%------|-%------|-%------|-%------|-%------|-%------|-%------|
A|--------|--------|--------|--------|--------|--------|--------|--------|--------|
E|--------|--------|--------|--------|--------|--------|--------|--------|--------|

E|------------|--------|--------|--------|--------|--------|--------|--------|--------|
B|------------|--------|--------|--------|--------|--------|--------|--------|--------|
G|-%-----%----|-%------|-%------|-%------|-%------|-%------|-%------|-%------|-%------|
D|-%-----%----|-%------|-%------|-%------|-%------|-%------|-%------|-%------|-%------|
A|------------|--------|--------|--------|--------|--------|--------|--------|--------|
E|------------|--------|--------|--------|--------|--------|--------|--------|--------|

E|--------|--------|--------|--------|--------|--------|--------|--------|--------|
B|--------|--------|--------|--------|--------|--------|--------|--------|--------|
G|-%------|-%------|-%------|-%------|-%------|-%------|-%------|-%------|-%------|
D|-%------|-%------|-%------|-%------|-%------|-%------|-%------|-%------|-%------|
A|--------|--------|--------|--------|--------|--------|--------|--------|--------|
E|--------|--------|--------|--------|--------|--------|--------|--------|--------|

E|--------|--------|--------|--------------|--------|--------|--------|--------|--------|
B|--------|--------|--------|--------------|--------|--------|--------|--------|--------|
G|-%------|-%------|-%------|-%------%-----|-%------|-%------|-%------|-%------|-%------|
D|-%------|-%------|-%------|-%------%-----|-%------|-%------|-%------|-%------|-%------|
A|--------|--------|--------|--------------|--------|--------|--------|--------|--------|
E|--------|--------|--------|--------------|--------|--------|--------|--------|--------|

E|--------|--------------|--------|--------|--------|--------|--------|--------|--------------|
B|--------|--------------|--------|--------|--------|--------|--------|--------|--------------|
G|-%------|-%------%-----|-%------|-%------|-%------|-%------|-%------|-%------|-%------%-----|
D|-%------|-%------%-----|-%------|-%------|-%------|-%------|-%------|-%------|-%------%-----|
A|--------|--------------|--------|--------|--------|--------|--------|--------|--------------|
E|--------|--------------|--------|--------|--------|--------|--------|--------|--------------|

E|--------|---------|---------|---------|---------|---------|---------|---------|---------|
B|--------|---------|---------|---------|---------|---------|---------|---------|---------|
G|-%------|-%-------|-%-------|-%-------|-%-------|-%-------|-%-------|-%-------|-%-------|
D|-%------|-%-------|-%-------|-%-------|-%-------|-%-------|-%-------|-%-------|-%-------|
A|--------|---------|---------|---------|---------|---------|---------|---------|---------|
E|--------|---------|---------|---------|---------|---------|---------|---------|---------|

E|---------|---------|---------|---------|---------|---------|---------|---------|---------|
B|---------|---------|---------|---------|---------|---------|---------|---------|---------|
G|-%-------|-%-------|-%-------|-%-------|-%-------|-%-------|-%-------|-%-------|-%-------|
D|-%-------|-%-------|-%-------|-%-------|-%-------|-%-------|-%-------|-%-------|-%-------|
A|---------|---------|---------|---------|---------|---------|---------|---------|---------|
E|---------|---------|---------|---------|---------|---------|---------|---------|---------|

E|---------|---------|--------|--------|--------|--------|--------|--------|--------|
B|---------|---------|--------|--------|--------|--------|--------|--------|--------|
G|-%-------|-%-------|-%------|-%------|-%------|-%------|-%------|-%------|-%------|
D|-%-------|-%-------|-%------|-%------|-%------|-%------|-%------|-%------|-%------|
A|---------|---------|--------|--------|--------|--------|--------|--------|--------|
E|---------|---------|--------|--------|--------|--------|--------|--------|--------|

E|--------|--------|--------|--------|--------|--------|--------|--------|--------|
B|--------|--------|--------|--------|--------|--------|--------|--------|--------|
G|-%------|-%------|-%------|-%------|-%------|-%------|-%------|-%------|-%------|
D|-%------|-%------|-%------|-%------|-%------|-%------|-%------|-%------|-%------|
A|--------|--------|--------|--------|--------|--------|--------|--------|--------|
E|--------|--------|--------|--------|--------|--------|--------|--------|--------|

E|--------|--------|--------|--------|--------|--------|--------|--------|--------------|
B|--------|--------|--------|--------|--------|--------|--------|--------|--------------|
G|-%------|-%------|-%------|-%------|-%------|-%------|-%------|-%------|-%------%-----|
D|-%------|-%------|-%------|-%------|-%------|-%------|-%------|-%------|-%------%-----|
A|--------|--------|--------|--------|--------|--------|--------|--------|--------------|
E|--------|--------|--------|--------|--------|--------|--------|--------|--------------|

E|--------|--------|--------|--------|--------|--------|--------------|--------|--------|
B|--------|--------|--------|--------|--------|--------|--------------|--------|--------|
G|-%------|-%------|-%------|-%------|-%------|-%------|-%------%-----|-%------|-%------|
D|-%------|-%------|-%------|-%------|-%------|-%------|-%------%-----|-%------|-%------|
A|--------|--------|--------|--------|--------|--------|--------------|--------|--------|
E|--------|--------|--------|--------|--------|--------|--------------|--------|--------|

E|--------|--------|--------|--------|--------------|--------|---------|---------|---------|
B|--------|--------|--------|--------|--------------|--------|---------|---------|---------|
G|-%------|-%------|-%------|-%------|-%------%-----|-%------|-%-------|-%-------|-%-------|
D|-%------|-%------|-%------|-%------|-%------%-----|-%------|-%-------|-%-------|-%-------|
A|--------|--------|--------|--------|--------------|--------|---------|---------|---------|
E|--------|--------|--------|--------|--------------|--------|---------|---------|---------|

E|---------|---------|---------|---------|---------|---------|---------|---------|---------|
B|---------|---------|---------|---------|---------|---------|---------|---------|---------|
G|-%-------|-%-------|-%-------|-%-------|-%-------|-%-------|-%-------|-%-------|-%-------|
D|-%-------|-%-------|-%-------|-%-------|-%-------|-%-------|-%-------|-%-------|-%-------|
A|---------|---------|---------|---------|---------|---------|---------|---------|---------|
E|---------|---------|---------|---------|---------|---------|---------|---------|---------|

E|---------|---------|---------|---------|---------|---------|---------|---------|------12--------12--------12--------12---|
B|---------|---------|---------|---------|---------|---------|---------|---------|-15---X----15--------15--------15--------|
G|-%-------|-%-------|-%-------|-%-------|-%-------|-%-------|-%-------|-%-------|-----------------------------------------|
D|-%-------|-%-------|-%-------|-%-------|-%-------|-%-------|-%-------|-%-------|-----------------------------------------|
A|---------|---------|---------|---------|---------|---------|---------|---------|-----------------------------------------|
E|---------|---------|---------|---------|---------|---------|---------|---------|-----------------------------------------|

E|------12---12--------12---12--------12---|------12---12--------12---12--------12---|
B|-15-------------15--------X----15--------|-15-------------15--------X----15--------|
G|-----------------------------------------|-----------------------------------------|
D|-----------------------------------------|-----------------------------------------|
A|-----------------------------------------|-----------------------------------------|
E|-----------------------------------------|-----------------------------------------|

E|-17-----17-----------|----------------------------------------------------|---------------------------------------------------------|
B|---------------------|-8--10-10----8---7---10----7---0---10---10--8---7---|-10---8---7---0----------------10---8---7----------------|
G|---------------X-----|----------------------------------------------------|------------------9----7---0----------------9----7---0---|
D|---------------------|----------------------------------------------------|---------------------------------------------------------|
A|---------------------|----------------------------------------------------|---------------------------------------------------------|
E|---------------------|----------------------------------------------------|---------------------------------------------------------|

E|-----------------------------------------------------------|---------------------------------|
B|-10---8---7------------------------------------------------|---------------------------------|
G|--------------9----7----0----9----7----0-------------------|---------------------------------|
D|--------------------------------------------9----7----0----|-9----7----0---------------------|
A|-----------------------------------------------------------|----------------10---7------14---|
E|-----------------------------------------------------------|---------------------------------|

E|-17---19---15---19---14---19--------19---|------19--------19---14---19---15---19---|
B|-------------------------------17--------|-15--------17----------------------------|
G|-----------------------------------------|-----------------------------------------|
D|-----------------------------------------|-----------------------------------------|
A|-----------------------------------------|-----------------------------------------|
E|-----------------------------------------|-----------------------------------------|

E|-19---17---15---17--15--14--15--14--------14----------------|--------------------------------------------|
B|-------------------------------------17--------17---15--14--|-15--14-------14---15---17---19---X----8----|
G|------------------------------------------------------------|---------16---------------------------------|
D|------------------------------------------------------------|--------------------------------------------|
A|------------------------------------------------------------|--------------------------------------------|
E|------------------------------------------------------------|--------------------------------------------|

E|-------------------------------------------------------------|------------------------------------------------|
B|-15--18--15------14--17--14------18---15--------17--14-------|-18---15--------17--14------18--18---16---------|
G|-------------X---------------16------------16-----------16---|-----------16-----------16-----------------%----|
D|-------------------------------------------------------------|-------------------------------------------%----|
A|-------------------------------------------------------------|------------------------------------------------|
E|-------------------------------------------------------------|------------------------------------------------|

E|-----------------------------------------|----------------------------|-------------------------------------|
B|-----------------------------------------|----------------------------|------14--------14----14--------14---|
G|---------------------3-------------------|-----------3----------------|-%----14---%----14----14---%----14---|
D|-5----0----5----0---------5----3---------|-3----5---------5----5------|-%---------%---------------%---------|
A|------------------------------------5----|----------------------------|-------------------------------------|
E|-----------------------------------------|----------------------------|-------------------------------------|

E|--------------------------------|---------------------------------|--------------------------------------------|
B|-14---14----14----14------------|-------14----16------------------|------14---17--14----------------------16---|
G|-14---14----14----14------------|-------14----16---14--------14---|-16----------------16---14--------14---16---|
D|------------------------16--14--|-16--------------------16--------|-----------------------------16-------------|
A|--------------------------------|---------------------------------|--------------------------------------------|
E|--------------------------------|---------------------------------|--------------------------------------------|

E|-----------------------------|-------------------------|-------------------------------------|
B|-16---------------------16---|-16----------------------|-------------------------------------|
G|-16----14----------14---16---|-16----14----------------|-----------------14--------14---16---|
D|-------------16--------------|-------------16-----16---|-16----14---16--------16-------------|
A|-----------------------------|-------------------------|-------------------------------------|
E|-----------------------------|-------------------------|-------------------------------------|

E|------------------------|-18---15--------15-------------------------------------------|
B|------17----------------|-----------18--------18---15---18---15--------15-------------|
G|-16--------16----16-----|-----------------------------------------18--------17---15---|
D|------------------------|-------------------------------------------------------------|
A|------------------------|-------------------------------------------------------------|
E|------------------------|-------------------------------------------------------------|

E|-------------------------------------------------------------|------------------------------------------------------|
B|-------------------------------------------------------------|------------------------------------------------------|
G|-17---15---15---15-------------------------------------------|------------------------------------------------------|
D|---------------------17---15---17---15--------15-------------|----------------------------------------------15--17--|
A|-----------------------------------------17--------17---15---|-17---15---13---15---13--------13---15---17-----------|
E|-------------------------------------------------------------|--------------------------15--------------------------|

E|---------------------------------|-------------------|------15--------15---15----|
B|------15--------15---15----15----|-X-----------------|-16--------16--------16----|
G|-17---15---%----15---15----15----|-X-----%-----%-----|---------------------------|
D|-17--------%---------------------|-------%-----%-----|---------------------------|
A|---------------------------------|-------------------|---------------------------|
E|---------------------------------|-------------------|---------------------------|

E|--------------|------------------------|---------|---------|---------|---------|---------|
B|--------------|-18---18---18-----------|---------|---------|---------|---------|---------|
G|-%------%-----|-----------------%------|-%-------|-%-------|-%-------|-%-------|-%-------|
D|-%------%-----|-----------------%------|-%-------|-%-------|-%-------|-%-------|-%-------|
A|--------------|------------------------|---------|---------|---------|---------|---------|
E|--------------|------------------------|---------|---------|---------|---------|---------|

E|--------|--------|--------|--------|--------|--------|--------|--------|--------|
B|--------|--------|--------|--------|--------|--------|--------|--------|--------|
G|-%------|-%------|-%------|-%------|-%------|-%------|-%------|-%------|-%------|
D|-%------|-%------|-%------|-%------|-%------|-%------|-%------|-%------|-%------|
A|--------|--------|--------|--------|--------|--------|--------|--------|--------|
E|--------|--------|--------|--------|--------|--------|--------|--------|--------|

E|--------------|--------|--------|--------|--------|--------|--------|--------------|
B|--------------|--------|--------|--------|--------|--------|--------|--------------|
G|-%------%-----|-%------|-%------|-%------|-%------|-%------|-%------|-%------%-----|
D|-%------%-----|-%------|-%------|-%------|-%------|-%------|-%------|-%------%-----|
A|--------------|--------|--------|--------|--------|--------|--------|--------------|
E|--------------|--------|--------|--------|--------|--------|--------|--------------|

E|--------|--------|--------|--------|--------|--------|--------------|--------|---------|
B|--------|--------|--------|--------|--------|--------|--------------|--------|---------|
G|-%------|-%------|-%------|-%------|-%------|-%------|-%------%-----|-%------|-%-------|
D|-%------|-%------|-%------|-%------|-%------|-%------|-%------%-----|-%------|-%-------|
A|--------|--------|--------|--------|--------|--------|--------------|--------|---------|
E|--------|--------|--------|--------|--------|--------|--------------|--------|---------|

E|---------|---------|---------|---------|---------|---------|---------|---------|---------|
B|---------|---------|---------|---------|---------|---------|---------|---------|---------|
G|-%-------|-%-------|-%-------|-%-------|-%-------|-%-------|-%-------|-%-------|-%-------|
D|-%-------|-%-------|-%-------|-%-------|-%-------|-%-------|-%-------|-%-------|-%-------|
A|---------|---------|---------|---------|---------|---------|---------|---------|---------|
E|---------|---------|---------|---------|---------|---------|---------|---------|---------|

E|---------|---------|---------|---------|---------|---------|---------|---------|---------|
B|---------|---------|---------|---------|---------|---------|---------|---------|---------|
G|-%-------|-%-------|-%-------|-%-------|-%-------|-%-------|-%-------|-%-------|-%-------|
D|-%-------|-%-------|-%-------|-%-------|-%-------|-%-------|-%-------|-%-------|-%-------|
A|---------|---------|---------|---------|---------|---------|---------|---------|---------|
E|---------|---------|---------|---------|---------|---------|---------|---------|---------|

E|--------|--------|--------|--------|--------|--------|--------|--------|--------|
B|--------|--------|--------|--------|--------|--------|--------|--------|--------|
G|-%------|-%------|-%------|-%------|-%------|-%------|-%------|-%------|-%------|
D|-%------|-%------|-%------|-%------|-%------|-%------|-%------|-%------|-%------|
A|--------|--------|--------|--------|--------|--------|--------|--------|--------|
E|--------|--------|--------|--------|--------|--------|--------|--------|--------|
Metallica - Black Album Part 2
Metallica - Black Album Part 2.gp3