Metallica - Blackened [Mistery Intro]

Metallica - Blackened [Mistery Intro]

Metallica



Title: Blackened
Album: ... And Justice For All
Artist: Metallica
Author: 

Track 1: Hetfield
E|-------|---------|---------------|-------------------------------|----------------------------|
B|-8-----|-8-------|-10-----8------|-8------8---10--8------8---10--|-12---10---8----10---12-----|
G|-------|---------|---------------|-------------------------------|----------------------------|
D|-------|---------|---------------|-------------------------------|----------------------------|
A|-------|---------|---------------|-------------------------------|----------------------------|
E|-------|---------|---------------|-------------------------------|----------------------------|

E|-------------------------------|---------------------------------|-------------------------------|
B|-8------8---10--8------8---10--|-12---10---8----10---12-----12---|-20-----20--22--20-----20--22--|
G|-------------------------------|---------------------------------|-------------------------------|
D|-------------------------------|---------------------------------|-------------------------------|
A|-------------------------------|---------------------------------|-------------------------------|
E|-------------------------------|---------------------------------|-------------------------------|

E|-------------------------------|---------|---------|-----------------|-------------------------------|
B|-22----22----20----22-20-19----|-19------|-19------|-19------19------|-19----20-22-20----22----22----|
G|-------------------------------|---------|---------|-----------------|-------------------------------|
D|-------------------------------|---------|---------|-----------------|-------------------------------|
A|-------------------------------|---------|---------|-----------------|-------------------------------|
E|-------------------------------|---------|---------|-----------------|-------------------------------|

E|-------------------------------|---------------------------------|-------------------------------|
B|-22--20--20-----22--20--20-----|-20---12-----10---8----10---12---|-10--8---8------10--8---8------|
G|-------------------------------|---------------------------------|-------------------------------|
D|-------------------------------|---------------------------------|-------------------------------|
A|-------------------------------|---------------------------------|-------------------------------|
E|-------------------------------|---------------------------------|-------------------------------|

E|----------------------------|-------------------------------|---------------|---------|
B|-12-----10---8----10---12---|-10--8---8------10--8---8------|-8------10-----|-8-------|
G|----------------------------|-------------------------------|---------------|---------|
D|----------------------------|-------------------------------|---------------|---------|
A|----------------------------|-------------------------------|---------------|---------|
E|----------------------------|-------------------------------|---------------|---------|

E|---------------------------------------------------|-----------------------------------------------------------------|
B|-8-------------------------------------------------|-----------------------------------------------------------------|
G|--------------------------------------%------------|-----------------------------------------------------------------|
D|-------3---------------3--0------2----%------------|---------------------------------------------8-------------------|
A|-------1-------3---2-------------2---------X-------|-7-------7-------7---8---7-------7-------7-------7-------7-------|
E|-----------2-----------------1---0---------X---0---|-----0-------0---------------0-------0---------------0-------0---|

E|---------------------------------------------------|-----------------------------------------------------------------|
B|---------------------------------------------------|-----------------------------------------------------------------|
G|---------------------------------------------------|-----------------------------------------------------------------|
D|---------------------3-----------------------------|-----------------------------------------------------------------|
A|-7-------7---8---7---1-----------2---3--3----------|-7-------7-------7---8---7-------7-------7-------7-------7-------|
E|-----0-------------------2---3-------------1---0---|-----0-------0---------------0-------0-------6-------0-------0---|

E|---------------------------------------------------|-----------------------------------------------------|
B|---------------------------------------------------|-----------------------------------------------------|
G|---------------------------------------------------|-----------------------------------------------------|
D|---------------------3-----------------------------|-----------------------------------------------------|
A|-7-------7---8---7---1-----------2---3--3----------|-7-------7-------7---8---7-------7-------7-------7---|
E|-----0-------------------2---3-------------1---0---|-----0-------0---------------0-------0-------6-------|

E|---------------------------------------------------------------|
B|---------------------------------------------------------------|
G|---------------------------%------------------------------%----|
D|---------------------------%------------------------------%----|
A|-5---5--5--5-------4---4--------5---5--5--5-------4---4--------|
E|-3---3--3--3---0---2---2--------3---3--3--3---0---2---2--------|
Metallica - Blackened [Mistery Intro]
Metallica - Blackened [Mistery Intro].gp3