Metallica - Blackened Mistery Intro Included

Metallica



Title: Blackned (Mistery Intro Included)
Album: 
Artist: MetallicA
Author: MetallicA

Track 1: Jaymz Scorpion
E|-------|---------|---------------|-------------------------------|----------------------------|
B|-8-----|-8-------|-10-----8------|-8------8---10--8------8---10--|-12---10---8----10---12-----|
G|-------|---------|---------------|-------------------------------|----------------------------|
D|-------|---------|---------------|-------------------------------|----------------------------|
A|-------|---------|---------------|-------------------------------|----------------------------|
E|-------|---------|---------------|-------------------------------|----------------------------|

E|-------------------------------|---------------------------------|-------------------------------|
B|-8------8---10--8------8---10--|-12---10---8----10---12-----12---|-20-----20--22--20-----20--22--|
G|-------------------------------|---------------------------------|-------------------------------|
D|-------------------------------|---------------------------------|-------------------------------|
A|-------------------------------|---------------------------------|-------------------------------|
E|-------------------------------|---------------------------------|-------------------------------|

E|-------------------------------|---------|---------|-----------------|-------------------------------|
B|-22----22----20----22-20-19----|-19------|-19------|-19------19------|-19----20-22-20----22----22----|
G|-------------------------------|---------|---------|-----------------|-------------------------------|
D|-------------------------------|---------|---------|-----------------|-------------------------------|
A|-------------------------------|---------|---------|-----------------|-------------------------------|
E|-------------------------------|---------|---------|-----------------|-------------------------------|

E|-------------------------------|---------------------------------|-------------------------------|
B|-22--20--20-----22--20--20-----|-20---12-----10---8----10---12---|-10--8---8------10--8---8------|
G|-------------------------------|---------------------------------|-------------------------------|
D|-------------------------------|---------------------------------|-------------------------------|
A|-------------------------------|---------------------------------|-------------------------------|
E|-------------------------------|---------------------------------|-------------------------------|

E|----------------------------|-------------------------------|---------------|---------|
B|-12-----10---8----10---12---|-10--8---8------10--8---8------|-8------10-----|-8-------|
G|----------------------------|-------------------------------|---------------|---------|
D|----------------------------|-------------------------------|---------------|---------|
A|----------------------------|-------------------------------|---------------|---------|
E|----------------------------|-------------------------------|---------------|---------|

E|--------------------------------------------------|-----------------------------------------------------------------------|
B|--------------------------------------------------|-----------------------------------------------------------------------|
G|-3--------------------------------------%---------|-----------------------------------------------------------------------|
D|-3--------------------------------2-----%---------|-------------------------------------------------------------8---------|
A|-1--------------2----1---1--------2----------X----|------7---------7---------7----8----7---------7---------7---------7----|
E|------2----3-----------------1----0----------X----|-0---------0---------0-------------------0---------0-------------------|

E|--------------------------------------------------------------------------|-----------------------------------------------------------------------|
B|--------------------------------------------------------------------------|-----------------------------------------------------------------------|
G|-----------------------------------------3--------------------------------|-----------------------------------------------------------------------|
D|-----------------------------------------3--------------------------------|-------------------------------------------------------------8---------|
A|------7---------7---------7----8----0----1--------------2----1---1--------|------7---------7---------7----8----7---------7---------7---------7----|
E|-0---------0---------0------------------------2----3-----------------1----|-0---------0---------0-------------------0---------0-------------------|

E|--------------------------------------------------------------------------|-----------------------------------------------------------------------|
B|--------------------------------------------------------------------------|-----------------------------------------------------------------------|
G|-----------------------------------------3--------------------------------|-----------------------------------------------------------------------|
D|-----------------------------------------3--------------------------------|-------------------------------------------------------------8---------|
A|------7---------7---------7----8----0----1--------------2----1---1--------|------7---------7---------7----8----7---------7---------7---------7----|
E|-0---------0---------0------------------------2----3-----------------1----|-0---------0---------0-------------------0---------0-------------------|

E|--------------------------------------------------------------------------|-----------------------------------------------------------------------|
B|--------------------------------------------------------------------------|-----------------------------------------------------------------------|
G|-----------------------------------------3--------------------------------|-----------------------------------------------------------------------|
D|-----------------------------------------3--------------------------------|-------------------------------------------------------------8---------|
A|------7---------7---------7----8----0----1--------------2----1---1--------|------7---------7---------7----8----7---------7---------7---------7----|
E|-0---------0---------0------------------------2----3-----------------1----|-0---------0---------0-------------------0---------0-------------------|

E|----------------------------------------|----------------------------------------|
B|----------------------------------------|----------------------------------------|
G|----------------------------------%-----|----------------------------------%-----|
D|-5----5---5---5---------4----4----%-----|-5----5---5---5---------4----4----%-----|
A|-5----5---5---5---------4----4----------|-5----5---5---5---------4----4----------|
E|-3----3---3---3----0----2----2----------|-3----3---3---3----0----2----2----------|

E|-----------------------------------------------------------------------|--------------------------------------------------------------------------|
B|-----------------------------------------------------------------------|--------------------------------------------------------------------------|
G|-----------------------------------------------------------------------|-----------------------------------------3--------------------------------|
D|-------------------------------------------------------------8---------|-----------------------------------------3--------------------------------|
A|------7---------7---------7----8----7---------7---------7---------7----|------7---------7---------7----8----0----1--------------2----1---1--------|
E|-0---------0---------0-------------------0---------0-------------------|-0---------0---------0------------------------2----3-----------------1----|

E|-----------------------------------------------------------------------|--------------------------------------------------------------------------|
B|-----------------------------------------------------------------------|--------------------------------------------------------------------------|
G|-----------------------------------------------------------------------|-----------------------------------------3--------------------------------|
D|-------------------------------------------------------------8---------|-----------------------------------------3--------------------------------|
A|------7---------7---------7----8----7---------7---------7---------7----|------7---------7---------7----8----0----1--------------2----1---1--------|
E|-0---------0---------0-------------------0---------0-------------------|-0---------0---------0------------------------2----3-----------------1----|

E|-----------------------------------------------------------------------|--------------------------------------------------------------------------|
B|-----------------------------------------------------------------------|--------------------------------------------------------------------------|
G|-----------------------------------------------------------------------|-----------------------------------------3--------------------------------|
D|-------------------------------------------------------------8---------|-----------------------------------------3--------------------------------|
A|------7---------7---------7----8----7---------7---------7---------7----|------7---------7---------7----8----0----1--------------2----1---1--------|
E|-0---------0---------0-------------------0---------0-------------------|-0---------0---------0------------------------2----3-----------------1----|

E|-----------------------------------------------------------------------|--------------------------------------------------------------------------|
B|-----------------------------------------------------------------------|--------------------------------------------------------------------------|
G|-----------------------------------------------------------------------|-----------------------------------------3--------------------------------|
D|-------------------------------------------------------------8---------|-----------------------------------------3--------------------------------|
A|------7---------7---------7----8----7---------7---------7---------7----|------7---------7---------7----8----0----1--------------2----1---1--------|
E|-0---------0---------0-------------------0---------0-------------------|-0---------0---------0------------------------2----3-----------------1----|

E|-------------------------------------------------------------|-------------------------------------------------------------|
B|-------------------------------------------------------------|-------------------------------------------------------------|
G|-------------------------------------------------------------|-------------------------------------------------------------|
D|-------------------------------3-----------------------------|-------------------------------3-----------------------------|
A|-------------------------------1--------------2----1---------|-------------------------------1--------------2----1---------|
E|-0----0----0----0----0----0---------2----3--------------1----|-0----0----0----0----0----0---------2----3--------------1----|

E|-------------------------------------------------------------|-------------------------------------------------------------|
B|-------------------------------------------------------------|-------------------------------------------------------------|
G|-------------------------------------------------------------|-------------------------------------------------------------|
D|-------------------------------3-----------------------------|-------------------------------3-----------------------------|
A|-------------------------------1--------------2----1---------|-------------------------------1--------------2----1---------|
E|-0----0----0----0----0----0---------2----3--------------1----|-0----0----0----0----0----0---------2----3--------------1----|

E|-------------------------------------------------------------|-------------------------------------------------------------|
B|-------------------------------------------------------------|-------------------------------------------------------------|
G|-------------------------------------------------------------|-------------------------------------------------------------|
D|-------------------------------3-----------------------------|-------------------------------3-----------------------------|
A|-------------------------------1--------------2----1---------|-------------------------------1--------------2----1---------|
E|-0----0----0----0----0----0---------2----3--------------1----|-0----0----0----0----0----0---------2----3--------------1----|

E|-------------------------------------------------------------|-------------------------------------------------------------|
B|-------------------------------------------------------------|-------------------------------------------------------------|
G|-------------------------------------------------------------|-------------------------------------------------------------|
D|-------------------------------3-----------------------------|-------------------------------------------------------------|
A|-------------------------------1--------------2----1---------|-5----5----5----5----5----5----5----5---------2----1---------|
E|-0----0----0----0----0----0---------2----3--------------1----|-3----3----3----3----3----3----3----3----3--------------1----|

E|-------------------------------------------------------------|-------------------------------------------------------------|
B|-------------------------------------------------------------|-------------------------------------------------------------|
G|-------------------------------------------------------------|-------------------------------------------------------------|
D|-------------------------------3-----------------------------|-------------------------------3-----------------------------|
A|-------------------------------1--------------2----1---------|-------------------------------1--------------2----1---------|
E|-0----0----0----0----0----0---------2----3--------------1----|-0----0----0----0----0----0---------2----3--------------1----|

E|-------------------------------------------------------------|-------------------------------------------------------------|
B|-------------------------------------------------------------|-------------------------------------------------------------|
G|-------------------------------------------------------------|-------------------------------------------------------------|
D|-------------------------------3-----------------------------|-------------------------------------------------------------|
A|-------------------------------1--------------2----1---------|-5----5----5----5----5----5----5----5---------2----1---------|
E|-0----0----0----0----0----0---------2----3--------------1----|-3----3----3----3----3----3----3----3----3--------------1----|

E|-----------------------------------------------------------------------|--------------------------------------------------------------------------|
B|-----------------------------------------------------------------------|--------------------------------------------------------------------------|
G|-----------------------------------------------------------------------|-----------------------------------------3--------------------------------|
D|-------------------------------------------------------------8---------|-----------------------------------------3--------------------------------|
A|------7---------7---------7----8----7---------7---------7---------7----|------7---------7---------7----8----0----1--------------2----1---1--------|
E|-0---------0---------0-------------------0---------0-------------------|-0---------0---------0------------------------2----3-----------------1----|

E|-----------------------------------------------------------------------|---------------------|
B|-----------------------------------------------------------------------|---------------------|
G|-----------------------------------------------------------------------|---------------------|
D|-------------------------------------------------------------8---------|---------------------|
A|------7---------7---------7----8----7---------7---------7---------7----|---------------------|
E|-0---------0---------0-------------------0---------0-------------------|-0----0----0----0----|

E|-------------------|---------------------------------|---------|---------------------------------------|
B|-------------------|---------------------------------|---------|---------------------------------------|
G|-------------------|-7---------------5---------------|---------|--------------%------------------%-----|
D|-2-----------------|-7---------------5---------------|-4-------|-5---5---5----%-----4---4---4----%-----|
A|-2-------7----7----|-5-----5----5----3-----5----5----|-4-------|-5---5---5----------4---4---4----------|
E|-0-------5----5----|-------3----3----------3----3----|-2-------|-3---3---3----------2---2---2----------|

E|-------------------|-----------------------------------|---------|----------------------------------------|
B|-------------------|-----------------------------------|---------|----------------------------------------|
G|-------------------|-7---------------5-----------------|---------|----------------------------------%-----|
D|-2-----------------|-7---------------5-----------------|-4-------|-5----5---5---5---------4----4----%-----|
A|-2-------7----7----|-5-----5----5----3-----5-----5-----|-4-------|-5----5---5---5---------4----4----------|
E|-0-------5----5----|-------3----3----------3-----3-----|-2-------|-3----3---3---3----0----2----2----------|

E|-----------------------------------------------------------------------|--------------------------------------------------------------------------|
B|-----------------------------------------------------------------------|--------------------------------------------------------------------------|
G|-----------------------------------------------------------------------|-----------------------------------------3--------------------------------|
D|-------------------------------------------------------------8---------|-----------------------------------------3--------------------------------|
A|------7---------7---------7----8----7---------7---------7---------7----|------7---------7---------7----8----0----1--------------2----1---1--------|
E|-0---------0---------0-------------------0---------0-------------------|-0---------0---------0------------------------2----3-----------------1----|

E|-------------------------------------------------------------|-------------------------------------------------------------|
B|-------------------------------------------------------------|-------------------------------------------------------------|
G|-------------------------------------------------------------|-------------------------------------------------------------|
D|-------------------------------3-----------------------------|-------------------------------3-----------------------------|
A|-------------------------------1--------------2----1---------|-------------------------------1--------------2----1---------|
E|-0----0----0----0----0----0---------2----3--------------1----|-0----0----0----0----0----0---------2----3--------------1----|

E|-------------------------------------------------------------|-------------------------------------------------------------|
B|-------------------------------------------------------------|-------------------------------------------------------------|
G|-------------------------------------------------------------|-------------------------------------------------------------|
D|-------------------------------3-----------------------------|-------------------------------------------------------------|
A|-------------------------------1--------------2----1---------|-5----5----5----5----5----5----5----5---------2----1---------|
E|-0----0----0----0----0----0---------2----3--------------1----|-3----3----3----3----3----3----3----3----3--------------1----|

E|-------------------------------------------------------------|-------------------------------------------------------------|
B|-------------------------------------------------------------|-------------------------------------------------------------|
G|-------------------------------------------------------------|-------------------------------------------------------------|
D|-------------------------------3-----------------------------|-------------------------------3-----------------------------|
A|-------------------------------1--------------2----1---------|-------------------------------1--------------2----1---------|
E|-0----0----0----0----0----0---------2----3--------------1----|-0----0----0----0----0----0---------2----3--------------1----|

E|-------------------------------------------------------------|-------------------------------------------------------------|
B|-------------------------------------------------------------|-------------------------------------------------------------|
G|-------------------------------------------------------------|-------------------------------------------------------------|
D|-------------------------------3-----------------------------|-------------------------------------------------------------|
A|-------------------------------1--------------2----1---------|-5----5----5----5----5----5----5----5---------2----1---------|
E|-0----0----0----0----0----0---------2----3--------------1----|-3----3----3----3----3----3----3----3----3--------------1----|

E|-----------------------------------------------------------------------|--------------------------------------------------------------------------|
B|-----------------------------------------------------------------------|--------------------------------------------------------------------------|
G|-----------------------------------------------------------------------|-----------------------------------------3--------------------------------|
D|-------------------------------------------------------------8---------|-----------------------------------------3--------------------------------|
A|------7---------7---------7----8----7---------7---------7---------7----|------7---------7---------7----8----0----1--------------2----1---1--------|
E|-0---------0---------0-------------------0---------0-------------------|-0---------0---------0------------------------2----3-----------------1----|

E|-----------------------------------------------------------------------|---------------------|
B|-----------------------------------------------------------------------|---------------------|
G|-----------------------------------------------------------------------|---------------------|
D|-------------------------------------------------------------8---------|---------------------|
A|------7---------7---------7----8----7---------7---------7---------7----|---------------------|
E|-0---------0---------0-------------------0---------0-------------------|-0----0----0----0----|

E|-------------------|---------------------------------|---------|---------------------------------------|
B|-------------------|---------------------------------|---------|---------------------------------------|
G|-------------------|-7---------------5---------------|---------|--------------%------------------%-----|
D|-2-----------------|-7---------------5---------------|-4-------|-5---5---5----%-----4---4---4----%-----|
A|-2-------7----7----|-5-----5----5----3-----5----5----|-4-------|-5---5---5----------4---4---4----------|
E|-0-------5----5----|-------3----3----------3----3----|-2-------|-3---3---3----------2---2---2----------|

E|-------------------|-----------------------------------|---------|----------------------------------------|
B|-------------------|-----------------------------------|---------|----------------------------------------|
G|-------------------|-7---------------5-----------------|---------|----------------------------------%-----|
D|-2-----------------|-7---------------5-----------------|-4-------|-5----5---5---5---------4----4----%-----|
A|-2-------7----7----|-5-----5----5----3-----5-----5-----|-4-------|-5----5---5---5---------4----4----------|
E|-0-------5----5----|-------3----3----------3-----3-----|-2-------|-3----3---3---3----0----2----2----------|

E|----------------------------------------|-----------------|----------------------|
B|----------------------------------------|-----------------|----------------------|
G|----------------------------------%-----|-----------%-----|----------------------|
D|-5----5---5---5---------4----4----%-----|-3----3----%-----|-2-------2------2-----|
A|-5----5---5---5---------4----4----------|-3----3----------|-2-------2------2-----|
E|-3----3---3---3----0----2----2----------|-1----1----------|-0-------0------0-----|

E|-----------------------------------------|-----------------------------------------|
B|-----------------------------------------|-----------------------------------------|
G|-----------------------------------------|-----------------------------------------|
D|-2----2----2----2----2----2----2----2----|-2----2----2----2----2----2----2----2----|
A|-2----2----2----2---------2----2----2----|-2----2----2----2----2----2----2----2----|
E|-0----0----0----0----0----0----0----0----|-0----0----0----0----0----0----0----0----|

E|-----------------------------------------|-------------------|---------|-----------------------------------------|
B|-----------------------------------------|-------------------|---------|-----------------------------------------|
G|-----------------------------------------|-------------------|---------|-----------------------------------------|
D|-2----2----2----2----2----2----2----2----|-2----2----2-------|-2-------|-2----2----2----2----2----2----2----2----|
A|-2----2----2----2----2----2----2----2----|-2----2----2-------|-2-------|-2----2----2----2----2----2----2----2----|
E|-0----0----0----0----0----0----0----0----|-0----0----0-------|-0-------|-0----0----0----0----0----0----0----0----|

E|-----------------------------------------|-------------------|-----------------------------------------|
B|-----------------------------------------|-------------------|-----------------------------------------|
G|-----------------------------------------|-------------------|-----------------------------------------|
D|-2----2----2----2----2----2----2----2----|-2----2----2-------|----------------2------------------------|
A|-2----2----2----2----2----2----2----2----|-2----2----2-------|------0----1-----------------------------|
E|-0----0----0----0----0----0----0----0----|-0----0----0-------|-0-------------------0----0----0----0----|

E|-----------------------------------------|-----------------------------------------|
B|-----------------------------------------|-----------------------------------------|
G|-----------------------------------------|-----------------------------------------|
D|-----------3----2------------------------|----------------2------------------------|
A|-0----1----------------------------------|------0----1-----------------------------|
E|---------------------0----0----0----0----|-0-------------------0----0----0----0----|

E|-------------------|-----------------------------------------|-----------------------------------------|
B|-------------------|-----------------------------------------|-----------------------------------------|
G|-----------8-------|-----------------------------------------|-----------3-----------------------------|
D|-----------8-------|----------------2------------------------|-2--------------2------------------------|
A|-----------6-------|------0----1-----------------------------|------1----------------------------------|
E|-5----6------------|-0-------------------0----0----0----0----|---------------------0----0----0----0----|

E|-----------------------------------------|-------------------|-----------------------------|
B|-----------------------------------------|-------------------|-----------------------------|
G|-----------------------------------------|-----------8-------|-----------------------------|
D|----------------2------------------------|-----------8-------|-2-----2----2----2----2------|
A|------0----1-----------------------------|-----------6-------|-2-----2----2----2----2------|
E|-0-------------------0----0----0----0----|-5----6------------|-0-----0----0----0----0------|

E|-----------------------------|-----------------------------|--------------------|
B|-----------------------------|-----------------------------|--------------------|
G|-----------------------------|-----------------------------|--------------------|
D|-2-----2----2----2----2------|-2-----2----2----2----2------|-1------1-----2-----|
A|-2-----2----2----2----2------|-2-----2----2----2----2------|-1------1-----2-----|
E|-0-----0----0----0----0------|-0-----0----0----0----0------|--------------0-----|

E|-----------------------------|-----------------------------|-----------------------------|
B|-----------------------------|-----------------------------|-----------------------------|
G|-8---------------------------|-8---------------------------|-----------------------------|
D|-2-----2----2----2----2------|-2-----2----2----2----2------|-2-----2----2----2----2------|
A|-2-----2----2----2----2------|-2-----2----2----2----2------|-2-----2----2----2----2------|
E|-0-----0----0----0----0------|-------0----0----0----0------|-0-----0----0----0----0------|

E|-------------------|-----------------------------|-----------------------------|-----------------------------|
B|-------------------|-----------------------------|-----------------------------|-----------------------------|
G|-------------------|-----------------------------|-----------------------------|-8---------------------------|
D|-1-------2----3----|-4-----4----4----4----4------|-4-----4----4----4----4------|-4-----4----4----4----4------|
A|-1-------2----3----|-4-----4----4----4----4------|-4-----4----4----4----4------|-4-----4----4----4----4------|
E|-------------------|-2-----2----2----2----2------|-------2----2----2----2------|-------2----2----2----2------|

E|--------------|-----------------------------------------|-----------------------------------------|
B|--------------|-----------------------------------------|-----------------------------------------|
G|--------------|-----------------------------------------|-----------------------------------------|
D|-3------3-----|----------------2------------------------|-----------3----2------------------------|
A|-3------3-----|------0----1-----------------------------|-0----1----------------------------------|
E|-1------1-----|-0-------------------0----0----0----0----|---------------------0----0----0----0----|

E|-----------------------------------------|-------------------|-----------------------------------------|
B|-----------------------------------------|-------------------|-----------------------------------------|
G|-----------------------------------------|-----------8-------|-----------------------------------------|
D|----------------2------------------------|-----------8-------|----------------2------------------------|
A|------0----1-----------------------------|-----------6-------|------0----1-----------------------------|
E|-0-------------------0----0----0----0----|-5----6------------|-0-------------------0----0----0----0----|

E|-----------------------------------------|-----------------------------------------|
B|-----------------------------------------|-----------------------------------------|
G|-----------3-----------------------------|-----------------------------------------|
D|-2--------------2------------------------|----------------2------------------------|
A|------1----------------------------------|------0----1-----------------------------|
E|---------------------0----0----0----0----|-0-------------------0----0----0----0----|

E|-------------------|-----------------------------|-----------------------------|-----------------------------|
B|-------------------|-----------------------------|-----------------------------|-----------------------------|
G|-----------8-------|-----------------------------|-----------------------------|-----------------------------|
D|-----------8-------|-2-----2----2----2----2------|-2-----2----2----2----2------|-2-----2----2----2----2------|
A|-----------6-------|-2-----2----2----2----2------|-2-----2----2----2----2------|-2-----2----2----2----2------|
E|-5----6------------|-0-----0----0----0----0------|-0-----0----0----0----0------|-0-----0----0----0----0------|

E|--------------------|-----------------------------|-----------------------------|
B|--------------------|-----------------------------|-----------------------------|
G|--------------------|-8---------------------------|-8---------------------------|
D|-1------1-----2-----|-2-----2----2----2----2------|-2-----2----2----2----2------|
A|-1------1-----2-----|-2-----2----2----2----2------|-2-----2----2----2----2------|
E|--------------0-----|-0-----0----0----0----0------|-------0----0----0----0------|

E|-----------------------------|-------------------|-----------------------------|-----------------------------|
B|-----------------------------|-------------------|-----------------------------|-----------------------------|
G|-----------------------------|-------------------|-----------------------------|-----------------------------|
D|-2-----2----2----2----2------|-1-------2----3----|-4-----4----4----4----4------|-4-----4----4----4----4------|
A|-2-----2----2----2----2------|-1-------2----3----|-4-----4----4----4----4------|-4-----4----4----4----4------|
E|-0-----0----0----0----0------|-------------------|-2-----2----2----2----2------|-------2----2----2----2------|

E|-----------------------------|---------|-----------------------------------------|
B|-----------------------------|---------|-----------------------------------------|
G|-8---------------------------|---------|-----------------------------------------|
D|-4-----4----4----4----4------|-3-------|------7----9---------7----9---------7----|
A|-4-----4----4----4----4------|-3-------|-10-------------10-------------10--------|
E|-------2----2----2----2------|-1-------|-----------------------------------------|

E|------------------------|-----------------------------------------|----------------------------------|
B|------------------------|-----------------------------------------|----------------------------------|
G|------------------------|---------------------7----9---------7----|-9----11---9---11--9--------------|
D|-9----10---9---10--9----|------7----9-------------------10--------|------------------------9----7----|
A|------------------------|-10-------------10-----------------------|----------------------------------|
E|------------------------|-----------------------------------------|----------------------------------|

E|-----------------------------------------|------------------------|-----------------------------------------|
B|-----------------------------------------|------------------------|-----------------------------------------|
G|-----------------------------------------|------------------------|---------------------7----9---------7----|
D|------7----9---------7----9---------7----|-9----10---9---10--9----|------7----9-------------------10--------|
A|-10-------------10-------------10--------|------------------------|-10-------------10-----------------------|
E|-----------------------------------------|------------------------|-----------------------------------------|

E|----------------------------------|-----------------------------------------|------------------------|
B|----------------------------------|-----------------------------------------|------------------------|
G|-9----11---9---11--9--------------|------7----9---------7----9---------7----|-9----11---9---11--9----|
D|------------------------9----7----|-9--------------9--------------9---------|------------------------|
A|----------------------------------|-----------------------------------------|------------------------|
E|----------------------------------|-----------------------------------------|------------------------|

E|-----------------------------------------|----------------------------------|-----------------------------------------|
B|---------------------7----8---------7----|-8----10---8---10--8----7---------|------7----8---------7----8---------7----|
G|------7----9-------------------9---------|-----------------------------9----|-9--------------9--------------9---------|
D|-9--------------9------------------------|----------------------------------|-----------------------------------------|
A|-----------------------------------------|----------------------------------|-----------------------------------------|
E|-----------------------------------------|----------------------------------|-----------------------------------------|

E|------------------------|--------------------------7--------------|-7----8----7---8---7--------------|
B|-8----10---8---10--8----|------7----8---------10--------8----10---|------------------------8----10---|
G|------------------------|-9--------------9------------------------|----------------------------------|
D|------------------------|-----------------------------------------|----------------------------------|
A|------------------------|-----------------------------------------|----------------------------------|
E|------------------------|-----------------------------------------|----------------------------------|

E|-----------------------------------------|-------------------------------------|-----------------------------------------|
B|-----------------------------------------|-------------------------------------|-----------------------------------------|
G|-----------------------------------------|-------------------------------%-----|-----------------------------------------|
D|-7----4----7----4----7----4----7----4----|-7----4----7----4----7----4----%-----|-7----4----7----4----7----4----7----4----|
A|-7----4----7----4----7----4----7----4----|-7----4----7----4----7----4----------|-7----4----7----4----7----4----7----4----|
E|-----------------------------------------|-------------------------------------|-----------------------------------------|

E|-------------------------------------|-----------------------------------------|-------------------------------------|
B|-------------------------------------|-----------------------------------------|-------------------------------------|
G|-------------------------------%-----|-----------------------------------------|-------------------------------%-----|
D|-7----4----7----4----7----4----%-----|-7----4----7----4----7----4----7----4----|-7----4----7----4----7----4----%-----|
A|-7----4----7----4----7----4----------|-7----4----7----4----7----4----7----4----|-7----4----7----4----7----4----------|
E|-------------------------------------|-----------------------------------------|-------------------------------------|

E|-----------------------------------------|-------------------------------------|-12-----12---12----12---12--10--|
B|-----------------------------------------|-------------------------------------|-------------10-----------------|
G|-----------------------------------------|-------------------------------%-----|--------------------------------|
D|-7----4----7----4----7----4----7----4----|-7----4----7----4----7----4----%-----|--------------------------------|
A|-7----4----7----4----7----4----7----4----|-7----4----7----4----7----4----------|--------------------------------|
E|-----------------------------------------|-------------------------------------|--------------------------------|

E|-12----10--12--10--9----10----9--10-9---7----|-6----19----19---19---19---18---15---|
B|---------------------------------------------|-------------------------------------|
G|---------------------------------------------|-------------------------------------|
D|---------------------------------------------|-------------------------------------|
A|---------------------------------------------|-------------------------------------|
E|---------------------------------------------|-------------------------------------|

E|-14---15---15--14-------15--14-------12---14---|-----------------------------------------|
B|-------------------17-----------15-------------|-----------------------------------------|
G|-----------------------------------------------|-----------------------------------------|
D|-----------------------------------------------|-7----4----7----4----7----4----7----4----|
A|-----------------------------------------------|-7----4----7----4----7----4----7----4----|
E|-----------------------------------------------|-----------------------------------------|

E|-------------------------------------|----------------------------------------|----------------------------------------|
B|-------------------------------------|----------------------------------------|----------------------------------------|
G|-------------------------------%-----|----------------------------------%-----|----------------------------------%-----|
D|-7----4----7----4----7----4----%-----|-5----5---5---5---------4----4----%-----|-5----5---5---5---------4----4----%-----|
A|-7----4----7----4----7----4----------|-5----5---5---5---------4----4----------|-5----5---5---5---------4----4----------|
E|-------------------------------------|-3----3---3---3----0----2----2----------|-3----3---3---3----0----2----2----------|

E|-----------------|-----------------------------------------|-----------------------------------------|
B|-----------------|-----------------------------------------|-----------------------------------------|
G|-----------%-----|-----------------------------------------|-----------------------------------------|
D|-3----3----%-----|-----------------------------------------|-----------------------------------------|
A|-3----3----------|------7---------7---------7---------7----|------5---------5---------5---------5----|
E|-1----1----------|-0---------0---------0---------0---------|-0---------0---------0---------0---------|

E|-----------------------------------------|-----------------------------------------|
B|-----------------------------------------|-----------------------------------------|
G|-----------------------------------------|-----------------------------------------|
D|-----------------------------------------|-----------------------------------------|
A|------8---------8---------8---------8----|------7---------7---------7----5----7----|
E|-0---------0---------0---------0---------|-0---------0---------0-------------------|

E|-----------------------------------------|-----------------------------------------|
B|-----------------------------------------|-----------------------------------------|
G|-----------------------------------------|-----------------------------------------|
D|-----------------------------------------|-----------------------------------------|
A|------7---------7---------7---------7----|------5---------5---------5---------5----|
E|-0---------0---------0---------0---------|-0---------0---------0---------0---------|

E|-----------------------------------------|-----------------------------------------|
B|-----------------------------------------|-----------------------------------------|
G|-----------------------------------------|-----------------------------------------|
D|-----------------------------------------|-----------------------------------------|
A|------8---------8---------8---------8----|------7---------7---------7----5----7----|
E|-0---------0---------0---------0---------|-0---------0---------0-------------------|

E|-----------------------------------------|-------------------|---------------------------------|
B|-----------------------------------------|-------------------|---------------------------------|
G|-----------------------------------------|-9-------X----X----|-7-----7----7----5-----5----5----|
D|-2----2----2----2----2----2----2----2----|-9-------X----X----|-7-----7----7----5-----5----5----|
A|-2----2----2----2----2----2----2----2----|-7-------X----X----|-5-----5----5----3-----3----3----|
E|-0----0----0----0----0----0----0----0----|-------------------|---------------------------------|

E|---------|---------------------------------------|-------------------|---------------------------------|
B|---------|---------------------------------------|-------------------|---------------------------------|
G|---------|--------------%------------------%-----|-9-------9----9----|-7-----7----7----5-----5----5----|
D|-4-------|-5---5---5----%-----4---4---4----%-----|-9-------9----9----|-7-----7----7----5-----5----5----|
A|-4-------|-5---5---5----------4---4---4----------|-7-------7----7----|-5-----5----5----3-----3----3----|
E|-2-------|-3---3---3----------2---2---2----------|-------------------|---------------------------------|

E|---------|--------------------------|-----------------------------------------|-----------------------------------------|
B|---------|--------------------------|-----------------------------------------|-----------------------------------------|
G|---------|--------------------------|-----------------------------------------|-----------------------------------------|
D|-4-------|-2----2----2----2----2----|-----------------------------------------|-----------------------------------------|
A|-4-------|-2----2----2----2----2----|------7---------7---------7---------7----|------5---------5---------5---------5----|
E|-2-------|-0----0----0----0----0----|-7---------7---------7---------7---------|-5---------5---------5---------5---------|

E|-----------------------------------------|-----------------------------------------|
B|-----------------------------------------|-----------------------------------------|
G|-----------------------------------------|-----------------------------------------|
D|-----------------------------------------|-----------------------------------------|
A|------5---------5---------5---------5----|------3---------3---------3---------3----|
E|-3---------3---------3---------3---------|-3---------3---------3---------3---------|

E|-----------------------------------------|-----------------------------------------|
B|-----------------------------------------|-----------------------------------------|
G|-----------------------------------------|-----------------------------------------|
D|-----------------------------------------|-----------------------------------------|
A|------7---------7---------7---------7----|------5---------5---------5---------5----|
E|-7---------7---------7---------7---------|-5---------5---------5---------5---------|

E|-----------------------------------------|---------------------|--------------------------|
B|-----------------------------------------|---------------------|--------------------------|
G|-----------------------------------------|-5----5----5----5----|--------------------------|
D|-5----5----5----5----5----5----5----5----|-5----5----5----5----|-5----5----5----5----5----|
A|-5----5----5----5----5----5----5----5----|-3----3----3----3----|-5----5----5----5----5----|
E|-3----3----3----3----3----3----3----3----|---------------------|-3----3----3----3----3----|

E|-----------------------------------------------------------------------|--------------------------------------------------------------------------|
B|-----------------------------------------------------------------------|--------------------------------------------------------------------------|
G|-----------------------------------------------------------------------|--------------------------------------------------------------------------|
D|-------------------------------------------------------------8---------|--------------------------------------------------------------------------|
A|------7---------7---------7----8----7---------7---------7---------7----|------7---------7---------7----8----7------------------------3---4--------|
E|-0---------0---------0-------------------0---------0-------------------|-0---------0---------0-------------------0----2----3----4------------2----|

E|-----------------------------------------------------------------------|--------------------------------------------------------------------------|
B|-----------------------------------------------------------------------|--------------------------------------------------------------------------|
G|-----------------------------------------------------------------------|--------------------------------------------------------------------------|
D|-------------------------------------------------------------8---------|--------------------------------------------------------------------------|
A|------7---------7---------7----8----7---------7---------7---------7----|------7---------7---------7----8----7------------------------3---4--------|
E|-0---------0---------0-------------------0---------0-------------------|-0---------0---------0-------------------0----2----3----4------------2----|

E|-----------------------------------------------------------------------|--------------------------------------------------------------------------|
B|-----------------------------------------------------------------------|--------------------------------------------------------------------------|
G|-----------------------------------------------------------------------|--------------------------------------------------------------------------|
D|-------------------------------------------------------------8---------|--------------------------------------------------------------------------|
A|------7---------7---------7----8----7---------7---------7---------7----|------7---------7---------7----8----7------------------------3---4--------|
E|-0---------0---------0-------------------0---------0-------------------|-0---------0---------0-------------------0----2----3----4------------2----|

E|-----------------------------------------------------------------------|--------------------------------------------------------------------------|
B|-----------------------------------------------------------------------|--------------------------------------------------------------------------|
G|-----------------------------------------------------------------------|-----------------------------------------3--------------------------------|
D|-------------------------------------------------------------8---------|-----------------------------------------3--------------------------------|
A|------7---------7---------7----8----7---------7---------7---------7----|------7---------7---------7----8----0----1--------------2----1---1--------|
E|-0---------0---------0-------------------0---------0-------------------|-0---------0---------0------------------------2----3-----------------1----|

E|-------------------------------------------------------------|-------------------------------------------------------------|
B|-------------------------------------------------------------|-------------------------------------------------------------|
G|-------------------------------------------------------------|-------------------------------------------------------------|
D|-------------------------------3-----------------------------|-------------------------------3-----------------------------|
A|-------------------------------1--------------2----1---------|-------------------------------1--------------2----1---------|
E|-0----0----0----0----0----0---------2----3--------------1----|-0----0----0----0----0----0---------2----3--------------1----|

E|-------------------------------------------------------------|-------------------------------------------------------------|
B|-------------------------------------------------------------|-------------------------------------------------------------|
G|-------------------------------------------------------------|-------------------------------------------------------------|
D|-------------------------------3-----------------------------|-------------------------------------------------------------|
A|-------------------------------1--------------2----1---------|-5----5----5----5----5----5----5----5---------2----1---------|
E|-0----0----0----0----0----0---------2----3--------------1----|-3----3----3----3----3----3----3----3----3--------------1----|

E|-------------------------------------------------------------|-------------------------------------------------------------|
B|-------------------------------------------------------------|-------------------------------------------------------------|
G|-------------------------------------------------------------|-------------------------------------------------------------|
D|-------------------------------3-----------------------------|-------------------------------3-----------------------------|
A|-------------------------------1--------------2----1---------|-------------------------------1--------------2----1---------|
E|-0----0----0----0----0----0---------2----3--------------1----|-0----0----0----0----0----0---------2----3--------------1----|

E|-------------------------------------------------------------|-------------------------------------------------------------|
B|-------------------------------------------------------------|-------------------------------------------------------------|
G|-------------------------------------------------------------|-------------------------------------------------------------|
D|-------------------------------3-----------------------------|-------------------------------------------------------------|
A|-------------------------------1--------------2----1---------|-5----5----5----5----5----5----5----5---------2----1---------|
E|-0----0----0----0----0----0---------2----3--------------1----|-3----3----3----3----3----3----3----3----3--------------1----|

E|-----------------------------------------------------------------------|--------------------------------------------------------------------------|
B|-----------------------------------------------------------------------|--------------------------------------------------------------------------|
G|-----------------------------------------------------------------------|-----------------------------------------3--------------------------------|
D|-------------------------------------------------------------8---------|-----------------------------------------3--------------------------------|
A|------7---------7---------7----8----7---------7---------7---------7----|------7---------7---------7----8----0----1--------------2----1---1--------|
E|-0---------0---------0-------------------0---------0-------------------|-0---------0---------0------------------------2----3-----------------1----|

E|-----------------------------------------------------------------------|---------------------|
B|-----------------------------------------------------------------------|---------------------|
G|-----------------------------------------------------------------------|---------------------|
D|-------------------------------------------------------------8---------|---------------------|
A|------7---------7---------7----8----7---------7---------7---------7----|---------------------|
E|-0---------0---------0-------------------0---------0-------------------|-0----0----0----0----|

E|-------------------|---------------------------------|---------|---------------------------------------|
B|-------------------|---------------------------------|---------|---------------------------------------|
G|-------------------|-7---------------5---------------|---------|--------------%------------------%-----|
D|-2-----------------|-7---------------5---------------|-4-------|-5---5---5----%-----4---4---4----%-----|
A|-2-------7----7----|-5-----5----5----3-----5----5----|-4-------|-5---5---5----------4---4---4----------|
E|-0-------5----5----|-------3----3----------3----3----|-2-------|-3---3---3----------2---2---2----------|

E|-------------------|-----------------------------------|---------|----------------------------------------|
B|-------------------|-----------------------------------|---------|----------------------------------------|
G|-------------------|-7---------------5-----------------|---------|----------------------------------%-----|
D|-2-----------------|-7---------------5-----------------|-4-------|-5----5---5---5---------4----4----%-----|
A|-2-------7----7----|-5-----5----5----3-----5-----5-----|-4-------|-5----5---5---5---------4----4----------|
E|-0-------5----5----|-------3----3----------3-----3-----|-2-------|-3----3---3---3----2----2----2----------|

E|-------------------|---------------------------------|---------|---------------------------------------|
B|-------------------|---------------------------------|---------|---------------------------------------|
G|-------------------|-7---------------5---------------|---------|--------------%------------------%-----|
D|-2-----------------|-7---------------5---------------|-4-------|-5---5---5----%-----4---4---4----%-----|
A|-2-------7----7----|-5-----5----5----3-----5----5----|-4-------|-5---5---5----------4---4---4----------|
E|-0-------5----5----|-------3----3----------3----3----|-2-------|-3---3---3----------2---2---2----------|

E|-------------------|-----------------------------------|---------|----------------------------------|
B|-------------------|-----------------------------------|---------|----------------------------------|
G|-------------------|-7---------------5-----------------|---------|----------------------------------|
D|-2-------7----7----|-7-----5----5----5-----5-----5-----|-4-------|-5----5---5---5---------4----4----|
A|-2-------7----7----|-5-----5----5----3-----5-----5-----|-4-------|-5----5---5---5---------4----4----|
E|-0-------5----5----|-------3----3----------3-----3-----|-2-------|-3----3---3---3----0----2----2----|

E|----------------------------------------|-----------------|-----------------------------------------------------------------------|
B|----------------------------------------|-----------------|-----------------------------------------------------------------------|
G|----------------------------------%-----|-----------%-----|-----------------------------------------------------------------------|
D|-5----5---5---5---------4----4----%-----|-3----3----%-----|-------------------------------------------------------------8---------|
A|-5----5---5---5---------4----4----------|-3----3----------|------7---------7---------7----8----7---------7---------7---------7----|
E|-3----3---3---3----0----2----2----------|-1----1----------|-0---------0---------0-------------------0---------0-------------------|
Metallica - Blackened Mistery Intro Included
Metallica - Blackened Mistery Intro Included.gp4