Metallica - Bleeding Me (2)

Metallica



Title: Bleeding Me
Album: 
Artist: 
Author: Metallica

Track 1: Rhythm Guitar
D#|-----------------------------|-------------------------------------|-----------------------------|
A#|-----------------------------|-------------------------------------|-----------------------------|
F#|-----------------------------|-------------------------------------|-----------------------------|
C#|-------------5----0----------|---------------------------5---------|-------------5----0----------|
G#|-------7---------------7-----|-------7--------------5---------7----|-------7---------------7-----|
D#|-0---------------------------|-0----------0----5-------------------|-0---------------------------|

D#|---------------------------------------|-----------------------------|-------------------------------------|
A#|---------------------------------------|-----------------------------|-------------------------------------|
F#|---------------------------------------|-----------------------------|-------------------------------------|
C#|---------------------------------------|-------------5----0----------|---------------------------5---------|
G#|-------7--------------4----4--2-----2--|-------7---------------7-----|-------7--------------5---------7----|
D#|-0----------0----5---------5--3-----3--|-0---------------------------|-0----------0----5-------------------|

D#|-----------------------------|---------------------------------|-----------------------------|
A#|-----------------------------|---------------------------------|-----------------------------|
F#|-----------------------------|---------------------------------|-----------------------------|
C#|-------------5----0----------|---------------------------------|-------------5----0----------|
G#|-------7---------------5-----|-------5--------------5----------|-------7---------------7-----|
D#|-0---------------------------|-3----------3----2---------2-----|-0---------------------------|

D#|-------------------------------------|-----------------------------|---------------------------------------|
A#|-------------------------------------|-----------------------------|---------------------------------------|
F#|-------------------------------------|-----------------------------|---------------------------------------|
C#|---------------------------5---------|-------------5----0----------|---------------------------------------|
G#|-------7--------------5---------7----|-------7---------------7-----|-------7--------------4----4--2-----2--|
D#|-0----------0----5-------------------|-0---------------------------|-0----------0----5---------5--3-----3--|

D#|-----------------------------|-------------------------------------|-----------------------------|
A#|-----------------------------|-------------------------------------|-----------------------------|
F#|-----------------------------|-------------------------------------|-----------------------------|
C#|-------------5----0----------|---------------------------5---------|-------------5----0----------|
G#|-------7---------------7-----|-------7--------------5---------7----|-------7---------------5-----|
D#|-0---------------------------|-0----------0----5-------------------|-0---------------------------|

D#|---------------------------------|-----------------------------|-------------------------------------|
A#|---------------------------------|-----------------------------|-------------------------------------|
F#|---------------------------------|-----------------------------|-------------------------------------|
C#|---------------------------------|-------------5----0----------|---------------------------5---------|
G#|-------5--------------5----------|-------7---------------7-----|-------7--------------5---------7----|
D#|-3----------3----2---------2-----|-0---------------------------|-0----------0----5-------------------|

D#|-----------------------------|---------------------------------------|-----------------------------|
A#|-----------------------------|---------------------------------------|-----------------------------|
F#|-----------------------------|---------------------------------------|-----------------------------|
C#|-------------5----0----------|---------------------------------------|-------------5----0----------|
G#|-------7---------------7-----|-------7--------------4----4--2-----2--|-------7---------------7-----|
D#|-0---------------------------|-0----------0----5---------5--3-----3--|-0---------------------------|

D#|-------------------------------------|---------------------------------|---------------------------------|
A#|-------------------------------------|---------------------------------|---------------------------------|
F#|-------------------------------------|---------------------------------|---------------------------------|
C#|---------------------------5---------|-------------5----7----7---7-----|---------------------------------|
G#|-------7--------------5---------7----|-------7-------------------------|-------5--------------5----------|
D#|-0----------0----5-------------------|-0-------------------------------|-3----------3----2---------2-----|

D#|-----------------------------|-------------------------------------|-----------------------------|
A#|-----------------------------|-------------------------------------|-----------------------------|
F#|-----------------------------|-------------------------------------|-----------------------------|
C#|-------------5----0----------|---------------------------5---------|-------------5----0----------|
G#|-------7---------------7-----|-------7--------------5---------7----|-------7---------------7-----|
D#|-0---------------------------|-0----------0----5-------------------|-0---------------------------|

D#|---------------------------------------|-----------------------------|-------------------------------------|
A#|---------------------------------------|-----------------------------|-------------------------------------|
F#|---------------------------------------|-----------------------------|-------------------------------------|
C#|---------------------------------------|-------------5----0----------|---------------------------5---------|
G#|-------7--------------4----4--2-----2--|-------7---------------7-----|-------7--------------5---------7----|
D#|-0----------0----5---------5--3-----3--|-0---------------------------|-0----------0----5-------------------|

D#|-----------------------------|-------------------------------------------|-----------------------------|
A#|-----------------------------|-------------------------------------------|-----------------------------|
F#|-----------------------------|-X----7----7----9----9----12---7--9-----9--|-----------------------------|
C#|-------------5----0----------|-------------------------------------------|-------------5----0----------|
G#|-------7---------------5-----|-X----5----5----7----7----10---5--7-----7--|-------7---------------7-----|
D#|-0---------------------------|-------------------------------------------|-0---------------------------|

D#|-------------------------------------|-----------------------------|---------------------------------------|
A#|-------------------------------------|-----------------------------|---------------------------------------|
F#|-------------------------------------|-----------------------------|---------------------------------------|
C#|---------------------------5---------|-------------5----0----------|---------------------------------------|
G#|-------7--------------5---------7----|-------7---------------7-----|-------7--------------4----4--2-----2--|
D#|-0----------0----5-------------------|-0---------------------------|-0----------0----5---------5--3-----3--|

D#|-----------------------------|-------------------------------------|-----------------------------|
A#|-----------------------------|-------------------------------------|-----------------------------|
F#|-----------------------------|-------------------------------------|-----------------------------|
C#|-------------5----0----------|---------------------------5---------|-------------5----0----------|
G#|-------7---------------7-----|-------7--------------5---------7----|-------7---------------5-----|
D#|-0---------------------------|-0----------0----5-------------------|-0---------------------------|

D#|---------------------------------|-------------------------------------|-------------------------------------|
A#|---------------------------------|-------------------------------------|-------------------------------------|
F#|---------------------------------|-9----9----X----9----9-----9----X----|-7----7----X----7----7-----7----X----|
C#|---------------------------------|-7----9----X----9----9-----9----X----|-5----7----X----7----7-----7----X----|
G#|-------5--------------5----------|-7----7----X----7----7-----7----X----|-5----5----X----5----5-----5----X----|
D#|-3----------3----2---------2-----|-------------------------------------|-------------------------------------|

D#|-------------------------------------|-------------------------------------|---------------------------------|
A#|-------------------------------------|-------------------------------------|---------------------------------|
F#|-7----7----X----7----7-----X----X----|-9----9----X----9----9---------------|-9----9----X----9----9-----------|
C#|-5----7----X----7----7-----X----X----|-7----9----X----9----9---------------|-7----9----X----9----9-----------|
G#|-5----5----X----5----5-----X----X----|-7----7----X----7----7----------5----|-7----7----X----7----7-----------|
D#|-------------------------------------|---------------------------7---------|---------------------------12----|

D#|-------------------------------------|-------------------------------------|-------------------------------------|
A#|-------------------------------------|-------------------------------------|-------------------------------------|
F#|-7----7----X----7----7-----7----X----|-7----7----X----7----7-----X----X----|-2----2----X----2----2---------------|
C#|-5----7----X----7----7-----7----X----|-5----7----X----7----7-----X----X----|-0----2----X----2----2---------------|
G#|-5----5----X----5----5-----5----X----|-5----5----X----5----5-----X----X----|-0----0----X----0----0---------------|
D#|-------------------------------------|-------------------------------------|--------------------------0----3-----|

D#|-----------------------------|-------------------------------------|-----------------------------|
A#|-----------------------------|-------------------------------------|-----------------------------|
F#|-----------------------------|-------------------------------------|-----------------------------|
C#|-------------5----0----------|---------------------------5---------|-------------5----0----------|
G#|-------7---------------7-----|-------7--------------5---------7----|-------7---------------7-----|
D#|-0---------------------------|-0----------0----5-------------------|-0---------------------------|

D#|---------------------------------------|-----------------------------|-------------------------------------|
A#|---------------------------------------|-----------------------------|-------------------------------------|
F#|---------------------------------------|-----------------------------|-------------------------------------|
C#|---------------------------------------|-------------5----0----------|---------------------------5---------|
G#|-------7--------------4----4--2-----2--|-------7---------------7-----|-------7--------------5---------7----|
D#|-0----------0----5---------5--3-----3--|-0---------------------------|-0----------0----5-------------------|

D#|---------------------------------|---------------------------------|-----------------------------|
A#|---------------------------------|---------------------------------|-----------------------------|
F#|---------------------------------|---------------------------------|-----------------------------|
C#|-------------5----7----7---7-----|---------------------------------|-------------5----0----------|
G#|-------7-------------------------|-------5--------------5----------|-------7---------------7-----|
D#|-0-------------------------------|-3----------3----2---------2-----|-0---------------------------|

D#|-------------------------------------|-----------------------------|---------------------------------------|
A#|-------------------------------------|-----------------------------|---------------------------------------|
F#|-------------------------------------|-----------------------------|---------------------------------------|
C#|---------------------------5---------|-------------5----0----------|---------------------------------------|
G#|-------7--------------5---------7----|-------7---------------7-----|-------7--------------4----4--2-----2--|
D#|-0----------0----5-------------------|-0---------------------------|-0----------0----5---------5--3-----3--|

D#|-----------------------------|-------------------------------------|-----------------------------|
A#|-----------------------------|-------------------------------------|-----------------------------|
F#|-----------------------------|-------------------------------------|-----------------------------|
C#|-------------5----0----------|---------------------------5---------|-------------5----0----------|
G#|-------7---------------7-----|-------7--------------5---------7----|-------7---------------5-----|
D#|-0---------------------------|-0----------0----5-------------------|-0---------------------------|

D#|-----------------------------------------|-----------------------------------|-------------------------------------|
A#|-----------------------------------------|-----------------------------------|-------------------------------------|
F#|-X----7----7----9----9----12---12---9----|-11-9-----9------------------------|-------------------------------------|
C#|-----------------------------------------|-------------------5----0----------|---------------------------5---------|
G#|-X----5----5----7----7----10---10---7----|-9--7-----7--7---------------7-----|-------7--------------5---------7----|
D#|-----------------------------------------|-----------------------------------|-0----------0----5-------------------|

D#|-----------------------------|---------------------------------------|-----------------------------|
A#|-----------------------------|---------------------------------------|-----------------------------|
F#|-----------------------------|---------------------------------------|-----------------------------|
C#|-------------5----0----------|---------------------------------------|-------------5----0----------|
G#|-------7---------------7-----|-------7--------------4----4--2-----2--|-------7---------------7-----|
D#|-0---------------------------|-0----------0----5---------5--3-----3--|-0---------------------------|

D#|-------------------------------------|-----------------------------|---------------------------------|
A#|-------------------------------------|-----------------------------|---------------------------------|
F#|-------------------------------------|-----------------------------|---------------------------------|
C#|---------------------------5---------|-------------5----0----------|---------------------------------|
G#|-------7--------------5---------7----|-------7---------------5-----|-------5--------------5----------|
D#|-0----------0----5-------------------|-0---------------------------|-3----------3----2---------2-----|

D#|-------------------------------------|-------------------------------------|-------------------------------------|
A#|-------------------------------------|-------------------------------------|-------------------------------------|
F#|-9----9----X----9----9-----9----X----|-7----7----X----7----7-----7----X----|-7----7----X----7----7-----X----X----|
C#|-7----9----X----9----9-----9----X----|-5----7----X----7----7-----7----X----|-5----7----X----7----7-----X----X----|
G#|-7----7----X----7----7-----7----X----|-5----5----X----5----5-----5----X----|-5----5----X----5----5-----X----X----|
D#|-------------------------------------|-------------------------------------|-------------------------------------|

D#|-------------------------------------|---------------------------------|-------------------------------------|
A#|-------------------------------------|---------------------------------|-------------------------------------|
F#|-9----9----X----9----9---------------|-9----9----X----9----9-----------|-7----7----X----7----7-----7----X----|
C#|-7----9----X----9----9---------------|-7----9----X----9----9-----------|-5----7----X----7----7-----7----X----|
G#|-7----7----X----7----7----------5----|-7----7----X----7----7-----------|-5----5----X----5----5-----5----X----|
D#|---------------------------7---------|---------------------------12----|-------------------------------------|

D#|-------------------------------------|-------------------------------------|-----------------------------|
A#|-------------------------------------|-------------------------------------|-----------------------------|
F#|-7----7----X----7----7-----X----X----|-2----2----X----2----2---------------|-----------------------------|
C#|-5----7----X----7----7-----X----X----|-0----2----X----2----2---------------|-9-----9-----9-----X----5----|
G#|-5----5----X----5----5-----X----X----|-0----0----X----0----0---------------|-7-----7-----7-----X----5----|
D#|-------------------------------------|--------------------------0----3-----|-------------------X---------|

D#|-----------------------------------|-----------------------------------|-----------------------------------|
A#|-----------------------------------|-----------------------------------|-----------------------------------|
F#|-----------------------------------|-----------------------------------|-----------------------------------|
C#|-5--7-----7--7-----7-----X----5----|-5--7-----7--7-----7-----X---------|-------------------------X----X----|
G#|-5--5-----5--5-----5-----X----5----|-5--5-----5--5-----5-----X----5----|-5--7-----7--7-----7-----X----X----|
D#|-------------------------X---------|-------------------------X----5----|-5--5-----5--5-----5-----X----X----|

D#|-----------------------------|-----------------------------------|-----------------------------------|
A#|-----------------------------|-----------------------------------|-----------------------------------|
F#|-----------------------------|-----------------------------------|-----------------------------------|
C#|-9-----9-----9-----X----5----|-5--7-----7--7-----7-----X----5----|-5--7-----7--7-----7-----X---------|
G#|-7-----7-----7-----X----5----|-5--5-----5--5-----5-----X----5----|-5--5-----5--5-----5-----X----5----|
D#|-------------------X---------|-------------------------X---------|-------------------------X----5----|

D#|-----------------------------------|-----------------------------|-----------------------------------|
A#|-----------------------------------|-----------------------------|-----------------------------------|
F#|-----------------------------------|-----------------------------|-----------------------------------|
C#|-----------------------------------|-9-----9-----9-----X----5----|-5--7-----7--7-----7-----X----5----|
G#|-5--7-----7--7-----7---------------|-7-----7-----7-----X----5----|-5--5-----5--5-----5-----X----5----|
D#|-5--5-----5--5-----5----0----3-----|-------------------X---------|-------------------------X---------|

D#|-----------------------------------|-----------------------------------|-----------------------------|
A#|-----------------------------------|-----------------------------------|-----------------------------|
F#|-----------------------------------|-----------------------------------|-----------------------------|
C#|-5--7-----7--7-----7-----X---------|-----------------------------------|-9-----9-----9-----X----5----|
G#|-5--5-----5--5-----5-----X----5----|-5--7-----7--7-----7---------------|-7-----7-----7-----X----5----|
D#|-------------------------X----5----|-5--5-----5--5-----5----0----3-----|-------------------X---------|

D#|-----------------------------------|-----------------------------------|-----------------------------------|
A#|-----------------------------------|-----------------------------------|-----------------------------------|
F#|-----------------------------------|-----------------------------------|-----------------------------------|
C#|-5--7-----7--7-----7-----X----5----|-5--7-----7--7-----7-----X---------|-----------------------------------|
G#|-5--5-----5--5-----5-----X----5----|-5--5-----5--5-----5-----X----5----|-5--7-----7--7-----7---------------|
D#|-------------------------X---------|-------------------------X----5----|-5--5-----5--5-----5----0----3-----|

D#|-------------------------------------|-------------------------------------|-------------------------------------|
A#|-------------------------------------|-------------------------------------|-------------------------------------|
F#|-9----9----X----9----9-----9----X----|-7----7----X----7----7-----7----X----|-7----7----X----7----7-----X----X----|
C#|-7----9----X----9----9-----9----X----|-5----7----X----7----7-----7----X----|-5----7----X----7----7-----X----X----|
G#|-7----7----X----7----7-----7----X----|-5----5----X----5----5-----5----X----|-5----5----X----5----5-----X----X----|
D#|-------------------------------------|-------------------------------------|-------------------------------------|

D#|-------------------------------------|---------------------------------|-------------------------------------|
A#|-------------------------------------|---------------------------------|-------------------------------------|
F#|-9----9----X----9----9---------------|-9----9----X----9----9-----------|-7----7----X----7----7-----7----X----|
C#|-7----9----X----9----9---------------|-7----9----X----9----9-----------|-5----7----X----7----7-----7----X----|
G#|-7----7----X----7----7----------5----|-7----7----X----7----7-----------|-5----5----X----5----5-----5----X----|
D#|---------------------------7---------|---------------------------12----|-------------------------------------|

D#|-------------------------------------|-------------------------------------|-----------------------------|
A#|-------------------------------------|-------------------------------------|-----------------------------|
F#|-7----7----X----7----7-----X----X----|-2----2----X----2----2---------------|-----------------------------|
C#|-5----7----X----7----7-----X----X----|-0----2----X----2----2---------------|-------------5----0----------|
G#|-5----5----X----5----5-----X----X----|-0----0----X----0----0---------------|-------7---------------7-----|
D#|-------------------------------------|--------------------------0----3-----|-0---------------------------|

D#|-------------------------------------|-----------------------------|---------------------------------------|
A#|-------------------------------------|-----------------------------|---------------------------------------|
F#|-------------------------------------|-----------------------------|---------------------------------------|
C#|---------------------------5---------|-------------5----0----------|---------------------------------------|
G#|-------7--------------5---------7----|-------7---------------7-----|-------7--------------4----4--2-----2--|
D#|-0----------0----5-------------------|-0---------------------------|-0----------0----5---------5--3-----3--|

D#|-----------------------------|-------------------------------------|-----------------------------|
A#|-----------------------------|-------------------------------------|-----------------------------|
F#|-----------------------------|-------------------------------------|-----------------------------|
C#|-------------5----0----------|---------------------------5---------|-------------5----0----------|
G#|-------7---------------7-----|-------7--------------5---------7----|-------7---------------5-----|
D#|-0---------------------------|-0----------0----5-------------------|-0---------------------------|

D#|---------------------------------|-----------------------------|-------------------------------------|
A#|---------------------------------|-----------------------------|-------------------------------------|
F#|---------------------------------|-----------------------------|-------------------------------------|
C#|---------------------------------|-------------5----0----------|---------------------------5---------|
G#|-------5--------------5----------|-------7---------------7-----|-------7--------------5---------7----|
D#|-3----------3----2---------2-----|-0---------------------------|-0----------0----5-------------------|

D#|-----------------------------|---------------------------------------|-----------------------------|
A#|-----------------------------|---------------------------------------|-----------------------------|
F#|-----------------------------|---------------------------------------|-----------------------------|
C#|-------------5----0----------|---------------------------------------|-------------5----0----------|
G#|-------7---------------7-----|-------7--------------4----4--2-----2--|-------7---------------7-----|
D#|-0---------------------------|-0----------0----5---------5--3-----3--|-0---------------------------|

D#|-------------------------------------|---------------------------------|---------------------------------|
A#|-------------------------------------|---------------------------------|---------------------------------|
F#|-------------------------------------|---------------------------------|---------------------------------|
C#|---------------------------5---------|-------------5----7----7---7-----|---------------------------------|
G#|-------7--------------5---------7----|-------7-------------------------|-------5--------------5----------|
D#|-0----------0----5-------------------|-0-------------------------------|-3----------3----2---------2-----|

D#|-----------------------------|-----------------------------------|-----------------------------------|
A#|-----------------------------|-----------------------------------|-----------------------------------|
F#|-----------------------------|-----------------------------------|-----------------------------------|
C#|-9-----9-----9-----X----5----|-5--7-----7--7-----7-----X----5----|-5--7-----7--7-----7-----X---------|
G#|-7-----7-----7-----X----5----|-5--5-----5--5-----5-----X----5----|-5--5-----5--5-----5-----X----5----|
D#|-------------------X---------|-------------------------X---------|-------------------------X----5----|

D#|-----------------------------------|-----------------------------|-----------------------------------|
A#|-----------------------------------|-----------------------------|-----------------------------------|
F#|-----------------------------------|-----------------------------|-----------------------------------|
C#|-------------------------X----X----|-9-----9-----9-----X----5----|-5--7-----7--7-----7-----X----5----|
G#|-5--7-----7--7-----7-----X----X----|-7-----7-----7-----X----5----|-5--5-----5--5-----5-----X----5----|
D#|-5--5-----5--5-----5-----X----X----|-------------------X---------|-------------------------X---------|

D#|-----------------------------------|-----------------------------------|-----------------------------|
A#|-----------------------------------|-----------------------------------|-----------------------------|
F#|-----------------------------------|-----------------------------------|-----------------------------|
C#|-5--7-----7--7-----7-----X---------|-----------------------------------|-9-----9-----9-----X----5----|
G#|-5--5-----5--5-----5-----X----5----|-5--7-----7--7-----7---------------|-7-----7-----7-----X----5----|
D#|-------------------------X----5----|-5--5-----5--5-----5----0----3-----|-------------------X---------|

D#|-----------------------------------|-----------------------------------|-----------------------------------|
A#|-----------------------------------|-----------------------------------|-----------------------------------|
F#|-----------------------------------|-----------------------------------|-----------------------------------|
C#|-5--7-----7--7-----7-----X----5----|-5--7-----7--7-----7-----X---------|-----------------------------------|
G#|-5--5-----5--5-----5-----X----5----|-5--5-----5--5-----5-----X----5----|-5--7-----7--7-----7---------------|
D#|-------------------------X---------|-------------------------X----5----|-5--5-----5--5-----5----0----3-----|

D#|-----------------------------|-----------------------------------|-----------------------------------|
A#|-----------------------------|-----------------------------------|-----------------------------------|
F#|-----------------------------|-----------------------------------|-----------------------------------|
C#|-9-----9-----9-----X----5----|-5--7-----7--7-----7-----X----5----|-5--7-----7--7-----7-----X---------|
G#|-7-----7-----7-----X----5----|-5--5-----5--5-----5-----X----5----|-5--5-----5--5-----5-----X----5----|
D#|-------------------X---------|-------------------------X---------|-------------------------X----5----|

D#|-----------------------------------|---------|---------|---------|-----------------------------------------|
A#|-----------------------------------|---------|---------|---------|-----------------------------------------|
F#|-----------------------------------|---------|---------|---------|-----------------------------------------|
C#|-----------------------------------|---------|---------|---------|-7----9--------------9--------------9----|
G#|-5--7--7-----7-----7---------------|---------|---------|---------|-7-------------------7--------------7----|
D#|-5--5--5-----5-----5----0----3-----|-0-------|-0-------|-0-------|-0---------0----0----0----0----0----0----|

D#|-----------------------------------------|------------------------------------------|
A#|-----------------------------------------|------------------------------------------|
F#|-----------------------------------------|------------------------------------------|
C#|-----------9-------------------10---9----|-7--9--9-----9--------9--------------9----|
G#|-----------7---------7----10-------------|----7--7-----7--------7--------------7----|
D#|-0----0----0----0------------------------|-----------------0----0----0----0----0----|

D#|-----------------------------------------|------------------------------------------|
A#|-----------------------------------------|------------------------------------------|
F#|-----------------------------------------|------------------------------------------|
C#|-----------9-------------------10---9----|-7--9--9-----9--------9--------------9----|
G#|-----------7---------7----10-------------|----7--7-----7--------7--------------7----|
D#|-0----0----0----0------------------------|-----------------0----0----0----0----0----|

D#|-----------------------------------------|------------------------------------------|
A#|-----------------------------------------|------------------------------------------|
F#|-----------------------------------------|------------------------------------------|
C#|-----------9-------------------10---9----|-7--9--9-----9--------9--------------9----|
G#|-----------7---------7----10-------------|----7--7-----7--------7--------------7----|
D#|-0----0----0----0------------------------|-----------------0----0----0----0----0----|

D#|-----------------------------------------|------------------------------------------|
A#|-----------------------------------------|------------------------------------------|
F#|-----------------------------------------|------------------------------------------|
C#|-----------9-------------------10---9----|-7--9--9-----9--------9--------------9----|
G#|-----------7---------7----10-------------|----7--7-----7--------7--------------7----|
D#|-0----0----0----0------------------------|-----------------0----0----0----0----0----|

D#|-----------------------------------------|------------------------------------------|
A#|-----------------------------------------|------------------------------------------|
F#|-----------------------------------------|------------------------------------------|
C#|-----------9-------------------10---9----|-7--9--9-----9--------9--------------9----|
G#|-----------7---------7----10-------------|----7--7-----7--------7--------------7----|
D#|-0----0----0----0------------------------|-----------------0----0----0----0----0----|

D#|-----------------------------------------|------------------------------------------|
A#|-----------------------------------------|------------------------------------------|
F#|-----------------------------------------|------------------------------------------|
C#|-----------9-------------------10---9----|-7--9--9-----9--------9--------------9----|
G#|-----------7---------7----10-------------|----7--7-----7--------7--------------7----|
D#|-0----0----0----0------------------------|-----------------0----0----0----0----0----|

D#|-----------------------------------------|------------------------------------------|
A#|-----------------------------------------|------------------------------------------|
F#|-----------------------------------------|------------------------------------------|
C#|-----------9-------------------10---9----|-7--9--9-----9--------9--------------9----|
G#|-----------7---------7----10-------------|----7--7-----7--------7--------------7----|
D#|-0----0----0----0------------------------|-----------------0----0----0----0----0----|

D#|-----------------------------------------|------------------------------------------|
A#|-----------------------------------------|------------------------------------------|
F#|-----------------------------------------|------------------------------------------|
C#|-----------9-------------------10---9----|-7--9--9-----9--------9--------------9----|
G#|-----------7---------7----10-------------|----7--7-----7--------7--------------7----|
D#|-0----0----0----0------------------------|-----------------0----0----0----0----0----|

D#|-----------------------------------------|------------------------------------------|
A#|-----------------------------------------|------------------------------------------|
F#|-----------------------------------------|------------------------------------------|
C#|-----------9-------------------10---9----|-7--9--9-----9--------9--------------9----|
G#|-----------7---------7----10-------------|----7--7-----7--------7--------------7----|
D#|-0----0----0----0------------------------|-----------------0----0----0----0----0----|

D#|-----------------------------------------|------------------------------------------|
A#|-----------------------------------------|------------------------------------------|
F#|-----------------------------------------|------------------------------------------|
C#|-----------9-------------------10---9----|-7--9--9-----9--------9--------------9----|
G#|-----------7---------7----10-------------|----7--7-----7--------7--------------7----|
D#|-0----0----0----0------------------------|-----------------0----0----0----0----0----|

D#|-----------------------------------------|------------------------------------------|
A#|-----------------------------------------|------------------------------------------|
F#|-----------------------------------------|------------------------------------------|
C#|-----------9-------------------10---9----|-7--9--9-----9--------9--------------9----|
G#|-----------7---------7----10-------------|----7--7-----7--------7--------------7----|
D#|-0----0----0----0------------------------|-----------------0----0----0----0----0----|

D#|-----------------------------------------|-----------------------------|-----------------------------------|
A#|-----------------------------------------|-----------------------------|-----------------------------------|
F#|-----------------------------------------|-----------------------------|-----------------------------------|
C#|-----------9-------------------10---9----|-9-----9-----9-----X----5----|-5--7-----7--7-----7-----X----5----|
G#|-----------7---------7----10-------------|-7-----7-----7-----X----5----|-5--5-----5--5-----5-----X----5----|
D#|-0----0----0----0------------------------|-------------------X---------|-------------------------X---------|

D#|-----------------------------------|-----------------------------------|-----------------------------|
A#|-----------------------------------|-----------------------------------|-----------------------------|
F#|-----------------------------------|-----------------------------------|-----------------------------|
C#|-5--7-----7--7-----7-----X---------|-------------------------X----X----|-9-----9-----9-----X----5----|
G#|-5--5-----5--5-----5-----X----5----|-5--7-----7--7-----7-----X----X----|-7-----7-----7-----X----5----|
D#|-------------------------X----5----|-5--5-----5--5-----5-----X----X----|-------------------X---------|

D#|-------------------------------------------------|-----------------------------------|
A#|-------------------------------------------------|-----------------------------------|
F#|-------------------------------------------------|-----------------------------------|
C#|-7----7----7----7----7----7----7-----X-----X-----|-5--7-----7--7-----7-----X---------|
G#|-5----5----5----5----5----5----5-----X-----X-----|-5--5-----5--5-----5-----X----5----|
D#|-------------------------------------X-----X-----|-------------------------X----5----|

D#|-----------------------------------|-----------------------------|-----------------------------------|
A#|-----------------------------------|-----------------------------|-----------------------------------|
F#|-----------------------------------|-----------------------------|-----------------------------------|
C#|-----------------------------------|-9-----9-----9-----X----5----|-5--7-----7--7-----7-----X----5----|
G#|-5--7-----7--7-----7---------------|-7-----7-----7-----X----5----|-5--5-----5--5-----5-----X----5----|
D#|-5--5-----5--5-----5----0----3-----|-------------------X---------|-------------------------X---------|

D#|-----------------------------------|-----------------------------------|-----------------------------|
A#|-----------------------------------|-----------------------------------|-----------------------------|
F#|-----------------------------------|-----------------------------------|-----------------------------|
C#|-5--7-----7--7-----7-----X---------|-----------------------------------|-9-----9-----9-----X----5----|
G#|-5--5-----5--5-----5-----X----5----|-5--7-----7--7-----7---------------|-7-----7-----7-----X----5----|
D#|-------------------------X----5----|-5--5-----5--5-----5----0----3-----|-------------------X---------|

D#|-----------------------------------|-----------------------------------|-----------------------------------|
A#|-----------------------------------|-----------------------------------|-----------------------------------|
F#|-----------------------------------|-----------------------------------|-----------------------------------|
C#|-5--7-----7--7-----7-----X----5----|-5--7-----7--7-----7-----X---------|-----------------------------------|
G#|-5--5-----5--5-----5-----X----5----|-5--5-----5--5-----5-----X----5----|-5--7--7-----7-----7---------------|
D#|-------------------------X---------|-------------------------X----5----|-5--5--5-----5-----5----0----3-----|

D#|-----------------------------------------|-----------------------------------------|
A#|-----------------------------------------|-----------------------------------------|
F#|-----------------------------------------|-----------------------------------------|
C#|-7----9--------------9--------------9----|-----------9-------------------10---9----|
G#|-7-------------------7--------------7----|-----------7---------7----10-------------|
D#|-0---------0----0----0----0----0----0----|-0----0----0----0------------------------|

D#|------------------------------------------|-----------------------------------------|
A#|------------------------------------------|-----------------------------------------|
F#|------------------------------------------|-----------------------------------------|
C#|-7--9--9-----9--------9--------------9----|-----------9-------------------10---9----|
G#|----7--7-----7--------7--------------7----|-----------7---------7----10-------------|
D#|-----------------0----0----0----0----0----|-0----0----0----0------------------------|

D#|------------------------------------------|-----------------------------------------|
A#|------------------------------------------|-----------------------------------------|
F#|------------------------------------------|-----------------------------------------|
C#|-7--9--9-----9--------9--------------9----|-----------9-------------------10---9----|
G#|----7--7-----7--------7--------------7----|-----------7---------7----10-------------|
D#|-----------------0----0----0----0----0----|-0----0----0----0------------------------|

D#|------------------------------------------|-----------------------------------------|
A#|------------------------------------------|-----------------------------------------|
F#|------------------------------------------|-----------------------------------------|
C#|-7--9--9-----9--------9--------------9----|-----------9-------------------10---9----|
G#|----7--7-----7--------7--------------7----|-----------7---------7----10-------------|
D#|-----------------0----0----0----0----0----|-0----0----0----0------------------------|

D#|---------------------------------|-------------------------------------|---------------------------------|
A#|---------------------------------|-------------------------------------|---------------------------------|
F#|----------------------------5----|-%----2----2-----2----5----5----2----|-4-----4-----4----4----4----5----|
C#|-9-----9-----9----9----9----5----|-%----2----2-----2----5----5----2----|-4-----4-----4----4----4----5----|
G#|-9-----9-----9----9----9----3----|------0----0-----0----3----3----0----|-2-----2-----2----2----2----3----|
D#|-7-----7-----7----7----7---------|-------------------------------------|---------------------------------|

D#|-------------------------------------|-----------------------------------------|
A#|-------------------------------------|-----------------------------------------|
F#|-%----2----2-----X----7----7----9----|-----------------------------------------|
C#|-%----2----2-----X----7----7----9----|-7----9--------------9--------------9----|
G#|------0----0-----X----5----5----7----|-7-------------------7--------------7----|
D#|-------------------------------------|-0---------0----0----0----0----0----0----|

D#|-----------------------------------------|------------------------------------------|
A#|-----------------------------------------|------------------------------------------|
F#|-----------------------------------------|------------------------------------------|
C#|-----------9-------------------10---9----|-7--9--9-----9--------9--------------9----|
G#|-----------7---------7----10-------------|----7--7-----7--------7--------------7----|
D#|-0----0----0----0------------------------|-----------------0----0----0----0----0----|

D#|-----------------------------------------|------------------------------------------|
A#|-----------------------------------------|------------------------------------------|
F#|-----------------------------------------|------------------------------------------|
C#|-----------9-------------------10---9----|-7--9--9-----9--------9--------------9----|
G#|-----------7---------7----10-------------|----7--7-----7--------7--------------7----|
D#|-0----0----0----0------------------------|-----------------0----0----0----0----0----|

D#|-----------------------------------------|------------------------------------------|
A#|-----------------------------------------|------------------------------------------|
F#|-----------------------------------------|------------------------------------------|
C#|-----------9-------------------10---9----|-7--9--9-----9--------9--------------9----|
G#|-----------7---------7----10-------------|----7--7-----7--------7--------------7----|
D#|-0----0----0----0------------------------|-----------------0----0----0----0----0----|

D#|-----------------------------------------|-----------------------------|-----------------------------------|
A#|-----------------------------------------|-----------------------------|-----------------------------------|
F#|-----------------------------------------|-----------------------------|-----------------------------------|
C#|-----------9-------------------10---9----|-9-----9-----9-----X----5----|-5--7-----7--7-----7-----X----5----|
G#|-----------7---------7----10-------------|-7-----7-----7-----X----5----|-5--5-----5--5-----5-----X----5----|
D#|-0----0----0----0------------------------|-------------------X---------|-------------------------X---------|

D#|-----------------------------------|-----------------------------------|-----------------------------|
A#|-----------------------------------|-----------------------------------|-----------------------------|
F#|-----------------------------------|-----------------------------------|-----------------------------|
C#|-5--7-----7--7-----7-----X---------|-------------------------X----X----|-9-----9-----9-----X----5----|
G#|-5--5-----5--5-----5-----X----5----|-5--7-----7--7-----7-----X----X----|-7-----7-----7-----X----5----|
D#|-------------------------X----5----|-5--5-----5--5-----5-----X----X----|-------------------X---------|

D#|-----------------------------------|-----------------------------------|-----------------------------------|
A#|-----------------------------------|-----------------------------------|-----------------------------------|
F#|-----------------------------------|-----------------------------------|-----------------------------------|
C#|-5--7-----7--7-----7-----X----5----|-5--7-----7--7-----7-----X---------|-----------------------------------|
G#|-5--5-----5--5-----5-----X----5----|-5--5-----5--5-----5-----X----5----|-5--7-----7--7-----7---------------|
D#|-------------------------X---------|-------------------------X----5----|-5--5-----5--5-----5----0----3-----|

D#|-----------------------------|-------------------------------------|-----------------------------|
A#|-----------------------------|-------------------------------------|-----------------------------|
F#|-----------------------------|-------------------------------------|-----------------------------|
C#|-------------5----0----------|---------------------------5---------|-------------5----0----------|
G#|-------7---------------7-----|-------7--------------5---------7----|-------7---------------7-----|
D#|-0---------------------------|-0----------0----5-------------------|-0---------------------------|

D#|---------------------------------------|-----------------------------|-------------------------------------|
A#|---------------------------------------|-----------------------------|-------------------------------------|
F#|---------------------------------------|-----------------------------|-------------------------------------|
C#|---------------------------------------|-------------5----0----------|---------------------------5---------|
G#|-------7--------------4----4--2-----2--|-------7---------------7-----|-------7--------------5---------7----|
D#|-0----------0----5---------5--3-----3--|-0---------------------------|-0----------0----5-------------------|

D#|-----------------------------|---------------------------------|-----------------------------|
A#|-----------------------------|---------------------------------|-----------------------------|
F#|-----------------------------|---------------------------------|-----------------------------|
C#|-------------5----0----------|---------------------------------|-------------5----0----------|
G#|-------7---------------5-----|-------5--------------5----------|-------7---------------7-----|
D#|-0---------------------------|-3----------3----2---------2-----|-0---------------------------|

D#|-------------------------------------|-----------------------------|---------------------------------------|
A#|-------------------------------------|-----------------------------|---------------------------------------|
F#|-------------------------------------|-----------------------------|---------------------------------------|
C#|---------------------------5---------|-------------5----0----------|---------------------------------------|
G#|-------7--------------5---------7----|-------7---------------7-----|-------7--------------4----4--2-----2--|
D#|-0----------0----5-------------------|-0---------------------------|-0----------0----5---------5--3-----3--|

D#|-----------------------------|-------------------------------------|---------------------------------|
A#|-----------------------------|-------------------------------------|---------------------------------|
F#|-----------------------------|-------------------------------------|---------------------------------|
C#|-------------5----0----------|---------------------------5---------|-------------5----7----7---7-----|
G#|-------7---------------7-----|-------7--------------5---------7----|-------7-------------------------|
D#|-0---------------------------|-0----------0----5-------------------|-0-------------------------------|

D#|---------------------------------|-----------------------------|-------------------------------------|
A#|---------------------------------|-----------------------------|-------------------------------------|
F#|---------------------------------|-----------------------------|-------------------------------------|
C#|---------------------------------|-------------5----0----------|---------------------------5---------|
G#|-------5--------------5----------|-------7---------------7-----|-------7--------------5---------7----|
D#|-3----------3----2---------2-----|-0---------------------------|-0----------0----5-------------------|

D#|-----------------------------|---------------------------------------|-----------------------------|
A#|-----------------------------|---------------------------------------|-----------------------------|
F#|-----------------------------|---------------------------------------|-----------------------------|
C#|-------------5----0----------|---------------------------------------|-------------5----0----------|
G#|-------7---------------7-----|-------7--------------4----4--2-----2--|-------7---------------7-----|
D#|-0---------------------------|-0----------0----5---------5--3-----3--|-0---------------------------|

D#|-------------------------------------|-----------------------------|-------------------------------------|
A#|-------------------------------------|-----------------------------|-------------------------------------|
F#|-------------------------------------|-----------------------------|-%-----------------------------------|
C#|---------------------------5---------|-------------5----0----------|-%--------------5----7----7----5-----|
G#|-------7--------------5---------7----|-------7---------------5-----|------5----7-------------------------|
D#|-0----------0----5-------------------|-0---------------------------|-------------------------------------|

D#|-----------------------------|-------------------------------------|-----------------------------|
A#|-----------------------------|-------------------------------------|-----------------------------|
F#|-----------------------------|-------------------------------------|-----------------------------|
C#|-------------5----0----------|---------------------------5---------|-------------5----0----------|
G#|-------7---------------7-----|-------7--------------5---------7----|-------7---------------7-----|
D#|-0---------------------------|-0----------0----5-------------------|-0---------------------------|

D#|---------------------------------------|-----------------------------|-------------------------------------|
A#|---------------------------------------|-----------------------------|-------------------------------------|
F#|---------------------------------------|-----------------------------|-------------------------------------|
C#|---------------------------------------|-------------5----0----------|---------------------------5---------|
G#|-------7--------------4----4--2-----2--|-------7---------------7-----|-------7--------------5---------7----|
D#|-0----------0----5---------5--3-----3--|-0---------------------------|-0----------0----5-------------------|

D#|-----------------------------|---------------------------------|-12------|-12------|
A#|-----------------------------|---------------------------------|-12------|-12------|
F#|-----------------------------|---------------------------------|-12------|-12------|
C#|-------------5----0----------|---------------------------------|-14------|-14------|
G#|-------7---------------5-----|-------5--------------5----------|---------|---------|
D#|-0---------------------------|-3----------3----2---------2-----|---------|---------|

D#|---------|---------|---------|---------|---------|---------|---------|---------|
A#|---------|---------|---------|---------|---------|---------|---------|---------|
F#|-%-------|-%-------|-%-------|-%-------|-%-------|-%-------|-%-------|-%-------|
C#|-%-------|-%-------|-%-------|-%-------|-%-------|-%-------|-%-------|-%-------|
G#|---------|---------|---------|---------|---------|---------|---------|---------|
D#|---------|---------|---------|---------|---------|---------|---------|---------|

D#|---------|---------|---------|---------|---------|
A#|---------|---------|---------|---------|---------|
F#|-%-------|-%-------|-%-------|-%-------|-%-------|
C#|-%-------|-%-------|-%-------|-%-------|-%-------|
G#|---------|---------|---------|---------|---------|
D#|---------|---------|---------|---------|---------|
Metallica - Bleeding Me (2)
Metallica - Bleeding Me (2).gp3