Metallica - Bleeding Me - S&M

Metallica - Bleeding Me - S&M

Metallica



Title: Bleeding Me (Live S&M)
Album: S&M
Artist: MetallicA
Author: MetallicA

Track 1: Guitare 1 (James)
D#|---------|---------|-----------------------------|-------------------------------------|
A#|---------|---------|-----------------------------|-------------------------------------|
F#|-%-------|-%-------|-----------------------------|-------------------------------------|
C#|-%-------|-%-------|-------------5----0----------|---------------------------5---------|
G#|---------|---------|-------7---------------7-----|-7-----7--------------5---------7----|
D#|---------|---------|-0---------------------------|-0----------0----5-------------------|

D#|-----------------------------|---------------------------------|-----------------------------|
A#|-----------------------------|---------------------------------|-----------------------------|
F#|-----------------------------|---------------------------------|-----------------------------|
C#|-------------5----0----------|---------------------------------|-------------5----0----------|
G#|-------7---------------7-----|-7-----7--------------4----------|-------7---------------7-----|
D#|-0---------------------------|-0----------0----5---------3-----|-0---------------------------|

D#|-------------------------------------|-----------------------------|---------------------------------|
A#|-------------------------------------|-----------------------------|---------------------------------|
F#|-------------------------------------|-----------------------------|---------------------------------|
C#|---------------------------5---------|-------------5----0----------|---------------------------------|
G#|-7-----7--------------5---------7----|-------7---------------5-----|-------5--------------5----------|
D#|-0----------0----5-------------------|-0---------------------------|-3----------3----2---------2-----|

D#|-----------------------------|-------------------------------------|-----------------------------|
A#|-----------------------------|-------------------------------------|-----------------------------|
F#|-----------------------------|-------------------------------------|-----------------------------|
C#|-------------5----0----------|---------------------------5---------|-------------5----0----------|
G#|-------7---------------7-----|-7-----7--------------5---------7----|-------7---------------7-----|
D#|-0---------------------------|-0----------0----5-------------------|-0---------------------------|

D#|---------------------------------|-----------------------------|-------------------------------------|
A#|---------------------------------|-----------------------------|-------------------------------------|
F#|---------------------------------|-----------------------------|-------------------------------------|
C#|---------------------------------|-------------5----0----------|---------------------------5---------|
G#|-7-----7--------------4----------|-------7---------------7-----|-7-----7--------------5---------7----|
D#|-0----------0----5---------3-----|-0---------------------------|-0----------0----5-------------------|

D#|---------------------------------|---------------------------------|-----------------------------|
A#|---------------------------------|---------------------------------|-----------------------------|
F#|---------------------------------|---------------------------------|-----------------------------|
C#|-------------5----7----7---7-----|---------------------------------|-------------5----0----------|
G#|-------7-------------------------|-------5--------------5----------|-------7---------------7-----|
D#|-0-------------------------------|-3----------3----2---------2-----|-0---------------------------|

D#|-------------------------------------|-----------------------------|---------------------------------|
A#|-------------------------------------|-----------------------------|---------------------------------|
F#|-------------------------------------|-----------------------------|---------------------------------|
C#|---------------------------5---------|-------------5----0----------|---------------------------------|
G#|-7-----7--------------5---------7----|-------7---------------7-----|-7-----7--------------4----------|
D#|-0----------0----5-------------------|-0---------------------------|-0----------0----5---------3-----|

D#|-----------------------------|-------------------------------------|---------------------------------|
A#|-----------------------------|-------------------------------------|---------------------------------|
F#|-----------------------------|-------------------------------------|---------------------------------|
C#|-------------5----0----------|---------------------------5---------|-------------5----7----7---7-----|
G#|-------7---------------7-----|-7-----7--------------5---------7----|-------7-------------------------|
D#|-0---------------------------|-0----------0----5-------------------|-0-------------------------------|

D#|---------------------------------|-----------------------------|-------------------------------------|
A#|---------------------------------|-----------------------------|-------------------------------------|
F#|---------------------------------|-----------------------------|-------------------------------------|
C#|---------------------------------|-------------5----0----------|---------------------------5---------|
G#|-------5--------------5----------|-------7---------------7-----|-7-----7--------------5---------7----|
D#|-3----------3----2---------2-----|-0---------------------------|-0----------0----5-------------------|

D#|-----------------------------|---------------------------------|-----------------------------|
A#|-----------------------------|---------------------------------|-----------------------------|
F#|-----------------------------|---------------------------------|-----------------------------|
C#|-------------5----0----------|---------------------------------|-------------5----0----------|
G#|-------7---------------7-----|-7-----7--------------4----------|-------7---------------7-----|
D#|-0---------------------------|-0----------0----5---------3-----|-0---------------------------|

D#|-------------------------------------|-----------------------------|-------------------------------------|
A#|-------------------------------------|-----------------------------|-------------------------------------|
F#|-------------------------------------|-----------------------------|-X----9----%----7----7----9----9-----|
C#|---------------------------5---------|-------------5----0----------|-----------%-------------------------|
G#|-7-----7--------------5---------7----|-------7---------------5-----|-X----7---------5----5----7----7-----|
D#|-0----------0----5-------------------|-0---------------------------|-------------------------------------|

D#|-----------------------------|-------------------------------------|-----------------------------|
A#|-----------------------------|-------------------------------------|-----------------------------|
F#|-----------------------------|-------------------------------------|-----------------------------|
C#|-------------5----0----------|---------------------------5---------|-------------5----0----------|
G#|-------7---------------7-----|-7-----7--------------5---------7----|-------7---------------7-----|
D#|-0---------------------------|-0----------0----5-------------------|-0---------------------------|

D#|---------------------------------|-----------------------------|-------------------------------------|
A#|---------------------------------|-----------------------------|-------------------------------------|
F#|---------------------------------|-----------------------------|-------------------------------------|
C#|---------------------------------|-------------5----0----------|---------------------------5---------|
G#|-7-----7--------------4----------|-------7---------------7-----|-7-----7--------------5---------7----|
D#|-0----------0----5---------3-----|-0---------------------------|-0----------0----5-------------------|

D#|-----------------------------|---------------------------------|---------------------------------|
A#|-----------------------------|---------------------------------|---------------------------------|
F#|-----------------------------|---------------------------------|-9----9----%----9----9-----9-----|
C#|-------------5----0----------|---------------------------------|-9----9----%----9----9-----9-----|
G#|-------7---------------5-----|-------5--------------5----------|-7----7---------7----7-----7-----|
D#|-0---------------------------|-3----------3----2---------2-----|---------------------------------|

D#|---------------------------------|---------------------------------|---------------------------------|
A#|---------------------------------|---------------------------------|---------------------------------|
F#|-7----7----%----7----7-----7-----|-7----7----%----7----7-----7-----|-9----9----%----9----9-----%-----|
C#|-7----7----%----7----7-----7-----|-7----7----%----7----7-----7-----|-9----9----%----9----9-----%-----|
G#|-5----5---------5----5-----5-----|-5----5---------5----5-----5-----|-7----7---------7----7-----------|
D#|---------------------------------|---------------------------------|---------------------------------|

D#|---------------------------------|---------------------------------|---------------------------------|
A#|---------------------------------|---------------------------------|---------------------------------|
F#|-9----9----%----9----9-----9-----|-7----7----%----7----7-----7-----|-7----7----%----7----7-----7-----|
C#|-9----9----%----9----9-----9-----|-7----7----%----7----7-----7-----|-7----7----%----7----7-----7-----|
G#|-7----7---------7----7-----7-----|-5----5---------5----5-----5-----|-5----5---------5----5-----5-----|
D#|---------------------------------|---------------------------------|---------------------------------|

D#|------------------------|-----------------------------|-------------------------------------|
A#|------------------------|-----------------------------|-------------------------------------|
F#|-2------2----2----2-----|-----------------------------|-------------------------------------|
C#|-2------2----2----2-----|-------------5----0----------|---------------------------5---------|
G#|-0------0----0----0-----|-------7---------------7-----|-7-----7--------------5---------7----|
D#|------------------------|-0---------------------------|-0----------0----5-------------------|

D#|-----------------------------|---------------------------------|-----------------------------|
A#|-----------------------------|---------------------------------|-----------------------------|
F#|-----------------------------|---------------------------------|-----------------------------|
C#|-------------5----0----------|---------------------------------|-------------5----0----------|
G#|-------7---------------7-----|-7-----7--------------4----------|-------7---------------7-----|
D#|-0---------------------------|-0----------0----5---------3-----|-0---------------------------|

D#|-------------------------------------|---------------------------------|---------------------------------|
A#|-------------------------------------|---------------------------------|---------------------------------|
F#|-------------------------------------|---------------------------------|---------------------------------|
C#|---------------------------5---------|-------------5----7----7---7-----|---------------------------------|
G#|-7-----7--------------5---------7----|-------7-------------------------|-------5--------------5----------|
D#|-0----------0----5-------------------|-0-------------------------------|-3----------3----2---------2-----|

D#|-----------------------------|-------------------------------------|-----------------------------|
A#|-----------------------------|-------------------------------------|-----------------------------|
F#|-----------------------------|-------------------------------------|-----------------------------|
C#|-------------5----0----------|---------------------------5---------|-------------5----0----------|
G#|-------7---------------7-----|-7-----7--------------5---------7----|-------7---------------7-----|
D#|-0---------------------------|-0----------0----5-------------------|-0---------------------------|

D#|---------------------------------|-----------------------------|-------------------------------------|
A#|---------------------------------|-----------------------------|-------------------------------------|
F#|---------------------------------|-----------------------------|-------------------------------------|
C#|---------------------------------|-------------5----0----------|---------------------------5---------|
G#|-7-----7--------------4----------|-------7---------------7-----|-7-----7--------------5---------7----|
D#|-0----------0----5---------3-----|-0---------------------------|-0----------0----5-------------------|

D#|-----------------------------|-------------------------------------|-----------------------------|
A#|-----------------------------|-------------------------------------|-----------------------------|
F#|-----------------------------|-X----9----%----7----7----9----9-----|-----------------------------|
C#|-------------5----0----------|-----------%-------------------------|-------------5----0----------|
G#|-------7---------------5-----|-X----7---------5----5----7----7-----|-------7---------------7-----|
D#|-0---------------------------|-------------------------------------|-0---------------------------|

D#|-------------------------------------|-----------------------------|---------------------------------|
A#|-------------------------------------|-----------------------------|---------------------------------|
F#|-------------------------------------|-----------------------------|---------------------------------|
C#|---------------------------5---------|-------------5----0----------|---------------------------------|
G#|-7-----7--------------5---------7----|-------7---------------7-----|-7-----7--------------4----------|
D#|-0----------0----5-------------------|-0---------------------------|-0----------0----5---------3-----|

D#|-----------------------------|-------------------------------------|-----------------------------|
A#|-----------------------------|-------------------------------------|-----------------------------|
F#|-----------------------------|-------------------------------------|-----------------------------|
C#|-------------5----0----------|---------------------------5---------|-------------5----0----------|
G#|-------7---------------7-----|-7-----7--------------5---------7----|-------7---------------5-----|
D#|-0---------------------------|-0----------0----5-------------------|-0---------------------------|

D#|---------------------------------|---------------------------------|---------------------------------|
A#|---------------------------------|---------------------------------|---------------------------------|
F#|---------------------------------|-9----9----%----9----9-----9-----|-7----7----%----7----7-----7-----|
C#|---------------------------------|-9----9----%----9----9-----9-----|-7----7----%----7----7-----7-----|
G#|-------5--------------5----------|-7----7---------7----7-----7-----|-5----5---------5----5-----5-----|
D#|-3----------3----2---------2-----|---------------------------------|---------------------------------|

D#|---------------------------------|---------------------------------|---------------------------------|
A#|---------------------------------|---------------------------------|---------------------------------|
F#|-7----7----%----7----7-----7-----|-9----9----%----9----9-----%-----|-9----9----%----9----9-----9-----|
C#|-7----7----%----7----7-----7-----|-9----9----%----9----9-----%-----|-9----9----%----9----9-----9-----|
G#|-5----5---------5----5-----5-----|-7----7---------7----7-----------|-7----7---------7----7-----7-----|
D#|---------------------------------|---------------------------------|---------------------------------|

D#|---------------------------------|---------------------------------|------------------------|
A#|---------------------------------|---------------------------------|------------------------|
F#|-7----7----%----7----7-----7-----|-7----7----%----7----7-----7-----|-2------2----2----2-----|
C#|-7----7----%----7----7-----7-----|-7----7----%----7----7-----7-----|-2------2----2----2-----|
G#|-5----5---------5----5-----5-----|-5----5---------5----5-----5-----|-0------0----0----0-----|
D#|---------------------------------|---------------------------------|------------------------|

D#|-----------------------------|-----------------------------|-----------------------------|
A#|-----------------------------|-----------------------------|-----------------------------|
F#|-----------------------------|-----------------------------|-----------------------------|
C#|-9-----9-----9-----X----5----|-7-----7-----7-----X----5----|-7-----7-----7-----X---------|
G#|-7-----7-----7-----X----5----|-5-----5-----5-----X----5----|-5-----5-----5-----X----5----|
D#|-----------------------------|-----------------------------|------------------------5----|

D#|---------------------------------|-----------------------------|-----------------------------|
A#|---------------------------------|-----------------------------|-----------------------------|
F#|---------------------------------|-----------------------------|-----------------------------|
C#|---------------------------------|-9-----9-----9-----X----5----|-7-----7-----7-----X----5----|
G#|-7-----7-----7-------------------|-7-----7-----7-----X----5----|-5-----5-----5-----X----5----|
D#|-5-----5-----5----0----3----0----|-----------------------------|-----------------------------|

D#|-----------------------------|---------------------------------|-----------------------------|
A#|-----------------------------|---------------------------------|-----------------------------|
F#|-----------------------------|---------------------------------|-----------------------------|
C#|-7-----7-----7-----X---------|---------------------------------|-9-----9-----9-----X----5----|
G#|-5-----5-----5-----X----5----|-7-----7-----7-------------------|-7-----7-----7-----X----5----|
D#|------------------------5----|-5-----5-----5----0----3----0----|-----------------------------|

D#|-----------------------------|-----------------------------|---------------------------------|
A#|-----------------------------|-----------------------------|---------------------------------|
F#|-----------------------------|-----------------------------|---------------------------------|
C#|-7-----7-----7-----X----5----|-7-----7-----7-----X---------|---------------------------------|
G#|-5-----5-----5-----X----5----|-5-----5-----5-----X----5----|-7-----7-----7-------------------|
D#|-----------------------------|------------------------5----|-5-----5-----5----0----3----0----|

D#|-----------------------------|-----------------------------|-----------------------------|
A#|-----------------------------|-----------------------------|-----------------------------|
F#|-----------------------------|-----------------------------|-----------------------------|
C#|-9-----9-----9-----X----5----|-7-----7-----7-----X----5----|-7-----7-----7-----X---------|
G#|-7-----7-----7-----X----5----|-5-----5-----5-----X----5----|-5-----5-----5-----X----5----|
D#|-----------------------------|-----------------------------|------------------------5----|

D#|---------------------------------|---------------------------------|---------------------------------|
A#|---------------------------------|---------------------------------|---------------------------------|
F#|---------------------------------|-9----9----%----9----9-----9-----|-7----7----%----7----7-----7-----|
C#|---------------------------------|-9----9----%----9----9-----9-----|-7----7----%----7----7-----7-----|
G#|-7-----7-----7-------------------|-7----7---------7----7-----7-----|-5----5---------5----5-----5-----|
D#|-5-----5-----5----0----3----0----|---------------------------------|---------------------------------|

D#|---------------------------------|---------------------------------|---------------------------------|
A#|---------------------------------|---------------------------------|---------------------------------|
F#|-7----7----%----7----7-----7-----|-9----9----%----9----9-----%-----|-9----9----%----9----9-----9-----|
C#|-7----7----%----7----7-----7-----|-9----9----%----9----9-----%-----|-9----9----%----9----9-----9-----|
G#|-5----5---------5----5-----5-----|-7----7---------7----7-----------|-7----7---------7----7-----7-----|
D#|---------------------------------|---------------------------------|---------------------------------|

D#|---------------------------------|---------------------------------|------------------------|
A#|---------------------------------|---------------------------------|------------------------|
F#|-7----7----%----7----7-----7-----|-7----7----%----7----7-----7-----|-2------2----2----2-----|
C#|-7----7----%----7----7-----7-----|-7----7----%----7----7-----7-----|-2------2----2----2-----|
G#|-5----5---------5----5-----5-----|-5----5---------5----5-----5-----|-0------0----0----0-----|
D#|---------------------------------|---------------------------------|------------------------|

D#|-----------------------------|-------------------------------------|-----------------------------|
A#|-----------------------------|-------------------------------------|-----------------------------|
F#|-----------------------------|-------------------------------------|-----------------------------|
C#|-------------5----0----------|---------------------------5---------|-------------5----0----------|
G#|-------7---------------7-----|-7-----7--------------5---------7----|-------7---------------7-----|
D#|-0---------------------------|-0----------0----5-------------------|-0---------------------------|

D#|---------------------------------|-----------------------------|-------------------------------------|
A#|---------------------------------|-----------------------------|-------------------------------------|
F#|---------------------------------|-----------------------------|-------------------------------------|
C#|---------------------------------|-------------5----0----------|---------------------------5---------|
G#|-7-----7--------------4----------|-------7---------------7-----|-7-----7--------------5---------7----|
D#|-0----------0----5---------3-----|-0---------------------------|-0----------0----5-------------------|

D#|---------------------------------|---------------------------------|-----------------------------|
A#|---------------------------------|---------------------------------|-----------------------------|
F#|---------------------------------|---------------------------------|-----------------------------|
C#|-------------5----7----7---7-----|---------------------------------|-------------5----0----------|
G#|-------7-------------------------|-------5--------------5----------|-------7---------------7-----|
D#|-0-------------------------------|-3----------3----2---------2-----|-0---------------------------|

D#|-------------------------------------|-----------------------------|---------------------------------|
A#|-------------------------------------|-----------------------------|---------------------------------|
F#|-------------------------------------|-----------------------------|---------------------------------|
C#|---------------------------5---------|-------------5----0----------|---------------------------------|
G#|-7-----7--------------5---------7----|-------7---------------7-----|-7-----7--------------4----------|
D#|-0----------0----5-------------------|-0---------------------------|-0----------0----5---------3-----|

D#|-----------------------------|-------------------------------------|-----------------------------|
A#|-----------------------------|-------------------------------------|-----------------------------|
F#|-----------------------------|-------------------------------------|-----------------------------|
C#|-------------5----0----------|---------------------------5---------|-------------5----0----------|
G#|-------7---------------7-----|-7-----7--------------5---------7----|-------7---------------5-----|
D#|-0---------------------------|-0----------0----5-------------------|-0---------------------------|

D#|---------|-----------------------------|-----------------------------|-----------------------------|
A#|---------|-----------------------------|-----------------------------|-----------------------------|
F#|---------|-----------------------------|-----------------------------|-----------------------------|
C#|---------|-9-----9-----9-----X----5----|-7-----7-----7-----X----5----|-7-----7-----7-----X---------|
G#|---------|-7-----7-----7-----X----5----|-5-----5-----5-----X----5----|-5-----5-----5-----X----5----|
D#|-2-------|-----------------------------|-----------------------------|------------------------5----|

D#|---------------------------------|-----------------------------|-----------------------------|
A#|---------------------------------|-----------------------------|-----------------------------|
F#|---------------------------------|-----------------------------|-----------------------------|
C#|---------------------------------|-9-----9-----9-----X----5----|-7-----7-----7-----X----5----|
G#|-7-----7-----7-------------------|-7-----7-----7-----X----5----|-5-----5-----5-----X----5----|
D#|-5-----5-----5----0----3----0----|-----------------------------|-----------------------------|

D#|-----------------------------|---------------------------------|-----------------------------|
A#|-----------------------------|---------------------------------|-----------------------------|
F#|-----------------------------|---------------------------------|-----------------------------|
C#|-7-----7-----7-----X---------|---------------------------------|-9-----9-----9-----X----5----|
G#|-5-----5-----5-----X----5----|-7-----7-----7-------------------|-7-----7-----7-----X----5----|
D#|------------------------5----|-5-----5-----5----0----3----0----|-----------------------------|

D#|-----------------------------|-----------------------------|---------------------------------|
A#|-----------------------------|-----------------------------|---------------------------------|
F#|-----------------------------|-----------------------------|---------------------------------|
C#|-7-----7-----7-----X----5----|-7-----7-----7-----X---------|---------------------------------|
G#|-5-----5-----5-----X----5----|-5-----5-----5-----X----5----|-7-----7-----7-------------------|
D#|-----------------------------|------------------------5----|-5-----5-----5----0----3----0----|

D#|-----------------------------|-----------------------------|-----------------------------|
A#|-----------------------------|-----------------------------|-----------------------------|
F#|-----------------------------|-----------------------------|-----------------------------|
C#|-9-----9-----9-----X----5----|-7-----7-----7-----X----5----|-7-----7-----7-----X---------|
G#|-7-----7-----7-----X----5----|-5-----5-----5-----X----5----|-5-----5-----5-----X----5----|
D#|-----------------------------|-----------------------------|------------------------5----|

D#|-----------------------------|---------|---------|---------|---------|---------|
A#|-----------------------------|---------|---------|---------|---------|---------|
F#|-----------------------------|---------|---------|---------|---------|---------|
C#|-----------------------------|---------|---------|---------|---------|---------|
G#|-7-----7-----7---------------|---------|---------|---------|---------|---------|
D#|-5-----5-----5----0----3-----|-0-------|-0-------|-0-------|-0-------|-0-------|

D#|---------|---------|---------|---------|---------|---------|---------|---------|
A#|---------|---------|---------|---------|---------|---------|---------|---------|
F#|---------|---------|-%-------|-%-------|-%-------|-%-------|-%-------|-%-------|
C#|---------|---------|-%-------|-%-------|-%-------|-%-------|-%-------|-%-------|
G#|---------|---------|---------|---------|---------|---------|---------|---------|
D#|-0-------|-0-------|---------|---------|---------|---------|---------|---------|

D#|---------|---------|---------|---------|-----------------------------------------|
A#|---------|---------|---------|---------|-----------------------------------------|
F#|-%-------|-%-------|-%-------|-%-------|-----------------------------------------|
C#|-%-------|-%-------|-%-------|-%-------|-7----9--------------9--------------9----|
G#|---------|---------|---------|---------|-7-------------------7--------------7----|
D#|---------|---------|---------|---------|-0---------0----0---------0----0---------|

D#|-----------------------------------------|---------------------------------|-----------------------------------------|
A#|-----------------------------------------|---------------------------------|-----------------------------------------|
F#|-----------------------------------------|---------------------------------|-----------------------------------------|
C#|-----------9-------------------10---9----|-9-----------9--------------9----|-----------9-------------------10---9----|
G#|-----------7---------7----10-------------|-7-----------7--------------7----|-----------7---------7----10-------------|
D#|-0----0----0----0------------------------|--------0----0----0----0----0----|-0----0----0----0------------------------|

D#|---------------------------------|-----------------------------------------|---------------------------------|
A#|---------------------------------|-----------------------------------------|---------------------------------|
F#|---------------------------------|-----------------------------------------|---------------------------------|
C#|-9-----------9--------------9----|-----------9-------------------10---9----|-9-----------9--------------9----|
G#|-7-----------7--------------7----|-----------7---------7----10-------------|-7-----------7--------------7----|
D#|--------0----0----0----0----0----|-0----0----0----0------------------------|--------0----0----0----0----0----|

D#|-----------------------------------------|---------------------------------|-----------------------------------------|
A#|-----------------------------------------|---------------------------------|-----------------------------------------|
F#|-----------------------------------------|---------------------------------|-----------------------------------------|
C#|-----------9-------------------10---9----|-9-----------9--------------9----|-----------9-------------------10---9----|
G#|-----------7---------7----10-------------|-7-----------7--------------7----|-----------7---------7----10-------------|
D#|-0----0----0----0------------------------|--------0----0----0----0----0----|-0----0----0----0------------------------|

D#|---------------------------------|-----------------------------------------|---------------------------------|
A#|---------------------------------|-----------------------------------------|---------------------------------|
F#|---------------------------------|-----------------------------------------|---------------------------------|
C#|-9-----------9--------------9----|-----------9-------------------10---9----|-9-----------9--------------9----|
G#|-7-----------7--------------7----|-----------7---------7----10-------------|-7-----------7--------------7----|
D#|--------0----0----0----0----0----|-0----0----0----0------------------------|--------0----0----0----0----0----|

D#|-----------------------------------------|---------------------------------|-----------------------------------------|
A#|-----------------------------------------|---------------------------------|-----------------------------------------|
F#|-----------------------------------------|---------------------------------|-----------------------------------------|
C#|-----------9-------------------10---9----|-9-----------9--------------9----|-----------9-------------------10---9----|
G#|-----------7---------7----10-------------|-7-----------7--------------7----|-----------7---------7----10-------------|
D#|-0----0----0----0------------------------|--------0----0----0----0----0----|-0----0----0----0------------------------|

D#|---------------------------------|-----------------------------------------|---------------------------------|
A#|---------------------------------|-----------------------------------------|---------------------------------|
F#|---------------------------------|-----------------------------------------|---------------------------------|
C#|-9-----------9--------------9----|-----------9-------------------10---9----|-9-----------9--------------9----|
G#|-7-----------7--------------7----|-----------7---------7----10-------------|-7-----------7--------------7----|
D#|--------0----0----0----0----0----|-0----0----0----0------------------------|--------0----0----0----0----0----|

D#|-----------------------------------------|---------------------------------|-----------------------------------------|
A#|-----------------------------------------|---------------------------------|-----------------------------------------|
F#|-----------------------------------------|---------------------------------|-----------------------------------------|
C#|-----------9-------------------10---9----|-9-----------9--------------9----|-----------9-------------------10---9----|
G#|-----------7---------7----10-------------|-7-----------7--------------7----|-----------7---------7----10-------------|
D#|-0----0----0----0------------------------|--------0----0----0----0----0----|-0----0----0----0------------------------|

D#|---------------------------------|-----------------------------------------|-----------------------------|
A#|---------------------------------|-----------------------------------------|-----------------------------|
F#|---------------------------------|-----------------------------------------|-----------------------------|
C#|-9-----------9--------------9----|-----------9-------------------10---9----|-9-----9-----9-----X----5----|
G#|-7-----------7--------------7----|-----------7---------7----10-------------|-7-----7-----7-----X----5----|
D#|--------0----0----0----0----0----|-0----0----0----0------------------------|-----------------------------|

D#|-----------------------------|-----------------------------|---------------------------------|
A#|-----------------------------|-----------------------------|---------------------------------|
F#|-----------------------------|-----------------------------|---------------------------------|
C#|-7-----7-----7-----X----5----|-7-----7-----7-----X---------|---------------------------------|
G#|-5-----5-----5-----X----5----|-5-----5-----5-----X----5----|-7-----7-----7-------------------|
D#|-----------------------------|------------------------5----|-5-----5-----5----0----3----0----|

D#|-----------------------------|-----------------------------|-----------------------------|
A#|-----------------------------|-----------------------------|-----------------------------|
F#|-----------------------------|-----------------------------|-----------------------------|
C#|-9-----9-----9-----X----5----|-7-----7-----7-----X----5----|-7-----7-----7-----X---------|
G#|-7-----7-----7-----X----5----|-5-----5-----5-----X----5----|-5-----5-----5-----X----5----|
D#|-----------------------------|-----------------------------|------------------------5----|

D#|---------------------------------|-----------------------------|-----------------------------|
A#|---------------------------------|-----------------------------|-----------------------------|
F#|---------------------------------|-----------------------------|-----------------------------|
C#|---------------------------------|-9-----9-----9-----X----5----|-7-----7-----7-----X----5----|
G#|-7-----7-----7-------------------|-7-----7-----7-----X----5----|-5-----5-----5-----X----5----|
D#|-5-----5-----5----0----3----0----|-----------------------------|-----------------------------|

D#|-----------------------------|---------------------------------|-----------------------------|
A#|-----------------------------|---------------------------------|-----------------------------|
F#|-----------------------------|---------------------------------|-----------------------------|
C#|-7-----7-----7-----X---------|---------------------------------|-9-----9-----9-----X----5----|
G#|-5-----5-----5-----X----5----|-7-----7-----7-------------------|-7-----7-----7-----X----5----|
D#|------------------------5----|-5-----5-----5----0----3----0----|-----------------------------|

D#|-----------------------------|-----------------------------|---------------------------------|
A#|-----------------------------|-----------------------------|---------------------------------|
F#|-----------------------------|-----------------------------|---------------------------------|
C#|-7-----7-----7-----X----5----|-7-----7-----7-----X---------|---------------------------------|
G#|-5-----5-----5-----X----5----|-5-----5-----5-----X----5----|-7-----7-----7-------------------|
D#|-----------------------------|------------------------5----|-5-----5-----5----0----3----0----|

D#|-----------------------------------------|-----------------------------------------|
A#|-----------------------------------------|-----------------------------------------|
F#|-----------------------------------------|-----------------------------------------|
C#|-7----9--------------9--------------9----|-----------9-------------------10---9----|
G#|-7-------------------7--------------7----|-----------7---------7----10-------------|
D#|-0---------0----0---------0----0---------|-0----0----0----0------------------------|

D#|---------------------------------|-----------------------------------------|---------------------------------|
A#|---------------------------------|-----------------------------------------|---------------------------------|
F#|---------------------------------|-----------------------------------------|---------------------------------|
C#|-9-----------9--------------9----|-----------9-------------------10---9----|-9-----------9--------------9----|
G#|-7-----------7--------------7----|-----------7---------7----10-------------|-7-----------7--------------7----|
D#|--------0----0----0----0----0----|-0----0----0----0------------------------|--------0----0----0----0----0----|

D#|-----------------------------------------|---------------------------------|-----------------------------------------|
A#|-----------------------------------------|---------------------------------|-----------------------------------------|
F#|-----------------------------------------|---------------------------------|-----------------------------------------|
C#|-----------9-------------------10---9----|-9-----------9--------------9----|-----------9-------------------10---9----|
G#|-----------7---------7----10-------------|-7-----------7--------------7----|-----------7---------7----10-------------|
D#|-0----0----0----0------------------------|--------0----0----0----0----0----|-0----0----0----0------------------------|

D#|---------------------------------|-------------------------------------|-------------------------------------|
A#|---------------------------------|-------------------------------------|-------------------------------------|
F#|-4-----4-----5----5----5----5----|-5----2----2-----5----5----5----2----|-4-----4----4----4----4----4----5----|
C#|-4-----4-----5----5----5----5----|-5----2----2-----5----5----5----2----|-4-----4----4----4----4----4----5----|
G#|-2-----2-----3----3----3----3----|-3----0----0-----3----3----3----0----|-2-----2----2----2----2----2----3----|
D#|---------------------------------|-------------------------------------|-------------------------------------|

D#|-------------------------------------|-----------------------------------------|
A#|-------------------------------------|-----------------------------------------|
F#|-5----%----%-----%-------------------|-----------------------------------------|
C#|-5----%----%-----%-------------------|-7----9--------------9--------------9----|
G#|-3--------------------X----X----X----|-7-------------------7--------------7----|
D#|-------------------------------------|-0---------0----0---------0----0---------|

D#|-----------------------------------------|---------------------------------|-----------------------------------------|
A#|-----------------------------------------|---------------------------------|-----------------------------------------|
F#|-----------------------------------------|---------------------------------|-----------------------------------------|
C#|-----------9-------------------10---9----|-9-----------9--------------9----|-----------9-------------------10---9----|
G#|-----------7---------7----10-------------|-7-----------7--------------7----|-----------7---------7----10-------------|
D#|-0----0----0----0------------------------|--------0----0----0----0----0----|-0----0----0----0------------------------|

D#|---------------------------------|-----------------------------------------|---------------------------------|
A#|---------------------------------|-----------------------------------------|---------------------------------|
F#|---------------------------------|-----------------------------------------|---------------------------------|
C#|-9-----------9--------------9----|-----------9-------------------10---9----|-9-----------9--------------9----|
G#|-7-----------7--------------7----|-----------7---------7----10-------------|-7-----------7--------------7----|
D#|--------0----0----0----0----0----|-0----0----0----0------------------------|--------0----0----0----0----0----|

D#|-----------------------------------------|-----------------------------|-----------------------------|
A#|-----------------------------------------|-----------------------------|-----------------------------|
F#|-----------------------------------------|-----------------------------|-----------------------------|
C#|-----------9-------------------10---9----|-9-----9-----9-----X----5----|-7-----7-----7-----X----5----|
G#|-----------7---------7----10-------------|-7-----7-----7-----X----5----|-5-----5-----5-----X----5----|
D#|-0----0----0----0------------------------|-----------------------------|-----------------------------|

D#|-----------------------------|---------------------------------|---------------------------------|
A#|-----------------------------|---------------------------------|---------------------------------|
F#|-----------------------------|---------------------------------|---------------------------------|
C#|-7-----7-----7-----X---------|---------------------------------|-9-----9-----9----9----9----7----|
G#|-5-----5-----5-----X----5----|-7-----7-----7-------------------|-7-----7-------------------------|
D#|------------------------5----|-5-----5-----5----0----3----0----|---------------------------------|

D#|---------------------------------|-----------------------------|---------------------------------|
A#|---------------------------------|-----------------------------|---------------------------------|
F#|---------------------------------|-----------------------------|---------------------------------|
C#|-7-----7----9----7-----7----X----|-7-----7-----7-----X---------|---------------------------------|
G#|-------5----7----5-----5----X----|-5-----5-----5-----X----5----|-7-----7-----7-------------------|
D#|---------------------------------|------------------------5----|-5-----5-----5----0----3----0----|

D#|-----------------------------|-------------------------------------|-----------------------------|
A#|-----------------------------|-------------------------------------|-----------------------------|
F#|-----------------------------|-------------------------------------|-----------------------------|
C#|-------------5----0----------|---------------------------5---------|-------------5----0----------|
G#|-------7---------------7-----|-7-----7--------------5---------7----|-------7---------------7-----|
D#|-0---------------------------|-0----------0----5-------------------|-0---------------------------|

D#|---------------------------------|-----------------------------|-------------------------------------|
A#|---------------------------------|-----------------------------|-------------------------------------|
F#|---------------------------------|-----------------------------|-------------------------------------|
C#|---------------------------------|-------------5----0----------|---------------------------5---------|
G#|-7-----7--------------4----------|-------7---------------7-----|-7-----7--------------5---------7----|
D#|-0----------0----5---------3-----|-0---------------------------|-0----------0----5-------------------|

D#|---------------------------------|---------------------------------|-----------------------------|
A#|---------------------------------|---------------------------------|-----------------------------|
F#|---------------------------------|---------------------------------|-----------------------------|
C#|-------------5----7----7---7-----|---------------------------------|-------------5----0----------|
G#|-------7-------------------------|-------5--------------5----------|-------7---------------7-----|
D#|-0-------------------------------|-3----------3----2---------2-----|-0---------------------------|

D#|-------------------------------------|-----------------------------|-------------------------------------|
A#|-------------------------------------|-----------------------------|----------------0--------------------|
F#|-------------------------------------|-----------------------------|-----------0---------4----5----4-----|
C#|---------------------------5---------|-------------5----0----------|------5------------------------------|
G#|-7-----7--------------5---------7----|-------7---------------7-----|-7-----------------------------------|
D#|-0----------0----5-------------------|-0---------------------------|-0-----------------------------------|

D#|-----------------------------|-------------------------------------|-----------------------------|
A#|-----------------------------|-------------------------------------|-----------------------------|
F#|-----------------------------|-------------------------------------|-----------------------------|
C#|-------------5----0----------|---------------------------5---------|-------------5----0----------|
G#|-------7---------------7-----|-7-----7--------------5---------7----|-------7---------------5-----|
D#|-0---------------------------|-0----------0----5-------------------|-0---------------------------|

D#|---------------------------------|-----------------------------|-------------------------------------|
A#|---------------------------------|-----------------------------|-------------------------------------|
F#|---------------------------------|-----------------------------|-------------------------------------|
C#|---------------------------------|-------------5----0----------|---------------------------5---------|
G#|-------5--------------5----------|-------7---------------7-----|-7-----7--------------5---------7----|
D#|-3----------3----2---------2-----|-0---------------------------|-0----------0----5-------------------|

D#|-----------------------------|---------------------------------|-----------------------------|
A#|-----------------------------|---------------------------------|-----------------------------|
F#|-----------------------------|---------------------------------|-----------------------------|
C#|-------------5----0----------|---------------------------------|-------------5----0----------|
G#|-------7---------------7-----|-7-----7--------------4----------|-------7---------------7-----|
D#|-0---------------------------|-0----------0----5---------3-----|-0---------------------------|

D#|-------------------------------------|-----------------------------|-------------------------------------|
A#|-------------------------------------|-----------------------------|-------------------------------------|
F#|-------------------------------------|-----------------------------|-7----9----X----7----9----X----7-----|
C#|---------------------------5---------|-------------5----0----------|-------------------------------------|
G#|-7-----7--------------5---------7----|-------7---------------5-----|-5----7----X----5----7----X----5-----|
D#|-0----------0----5-------------------|-0---------------------------|-------------------------------------|

D#|-----------------------------|-------------------------------------|-----------------------------|
A#|-----------------------------|-------------------------------------|-----------------------------|
F#|-----------------------------|-------------------------------------|-----------------------------|
C#|-------------5----0----------|---------------------------5---------|-------------5----0----------|
G#|-------7---------------7-----|-7-----7--------------5---------7----|-------7---------------7-----|
D#|-0---------------------------|-0----------0----5-------------------|-0---------------------------|

D#|---------------------------------|-----------------------------|-------------------------------------|
A#|---------------------------------|-----------------------------|-------------------------------------|
F#|---------------------------------|-----------------------------|-------------------------------------|
C#|---------------------------------|-------------5----0----------|---------------------------5---------|
G#|-7-----7--------------4----------|-------7---------------7-----|-7-----7--------------5---------7----|
D#|-0----------0----5---------3-----|-0---------------------------|-0----------0----5-------------------|

D#|-----------------------------|---------------------------------|-7-------|-7-------|
A#|-----------------------------|---------------------------------|-8-------|-8-------|
F#|-----------------------------|---------------------------------|-7-------|-7-------|
C#|-------------5----0----------|---------------------------------|-9-------|-9-------|
G#|-------7---------------5-----|-------5--------------5----------|-7-------|-7-------|
D#|-0---------------------------|-3----------3----2---------2-----|-0-------|-0-------|

D#|-7-------|---------|---------|---------|---------|---------|---------|---------|
A#|-8-------|---------|---------|---------|---------|---------|---------|---------|
F#|-7-------|-%-------|-%-------|-%-------|-%-------|-%-------|-%-------|-%-------|
C#|-9-------|-%-------|-%-------|-%-------|-%-------|-%-------|-%-------|-%-------|
G#|-7-------|---------|---------|---------|---------|---------|---------|---------|
D#|-0-------|---------|---------|---------|---------|---------|---------|---------|

D#|---------|---------|---------|---------|
A#|---------|---------|---------|---------|
F#|-%-------|-%-------|-%-------|-%-------|
C#|-%-------|-%-------|-%-------|-%-------|
G#|---------|---------|---------|---------|
D#|---------|---------|---------|---------|
Metallica - Bleeding Me - S&M
Metallica - Bleeding Me - S&M.gp3