Metallica - Blitzkrieg (3)

Metallica - Blitzkrieg (3)

Metallica



Title: Blitzkrieg
Album: 
Artist: Metallica
Author: Ian Jones, Brian Smith and James Sirotto

Track 1: James Hetfield (Guitar)
E|--------------------|-----------------------------------------|-----------------------------------------|
B|--------------------|-----------------------------------------|-----------------------------------------|
G|-%------%-----------|-----------------------------------------|-----------------------------------------|
D|-%------%-----7-----|-7----9--------------9---------7----9----|-----------9---------7----9--------------|
A|--------------5-----|-5----7--------------7---------5----7----|-----------7---------5----7--------------|
E|--------------------|-----------0----0---------0--------------|-0----0---------0--------------0----0----|

E|-----------------------------|-----------------|-----------------------------------------|
B|-----------------------------|-----------------|-----------------------------------------|
G|-----------------------------|-----------------|-----------------------------------------|
D|-----------------------------|-----------7-----|-7----9--------------9---------7----9----|
A|-9-----10--------------7-----|-----------5-----|-5----7--------------7---------5----7----|
E|-7-----8-----0----0----5-----|-0----0----------|-----------0----0---------0--------------|

E|-----------------------------------------|-----------------------------|-----------------|
B|-----------------------------------------|-----------------------------|-----------------|
G|-----------------------------------------|-----------------------------|-----------------|
D|-----------9---------7----9--------------|-----------------------------|-----------7-----|
A|-----------7---------5----7--------------|-9-----10--------------7-----|-----------5-----|
E|-0----0---------0--------------0----0----|-7-----8-----0----0----5-----|-0----0----------|

E|-----------------------------------------|-----------------------------------------|
B|-----------------------------------------|-----------------------------------------|
G|-----------------------------------------|-----------------------------------------|
D|-7----9--------------9---------7----9----|-----------9---------7----9--------------|
A|-5----7--------------7---------5----7----|-----------7---------5----7--------------|
E|-----------0----0---------0--------------|-0----0---------0--------------0----0----|

E|-----------------------------|-----------------|-----------------------------------------|
B|-----------------------------|-----------------|-----------------------------------------|
G|-----------------------------|-----------------|-----------------------------------------|
D|-----------------------------|-----------7-----|-7----9--------------9---------7----9----|
A|-9-----10--------------7-----|-----------5-----|-5----7--------------7---------5----7----|
E|-7-----8-----0----0----5-----|-0----0----------|-----------0----0---------0--------------|

E|-----------------------------------------|-----------------------------|-----------------|
B|-----------------------------------------|-----------------------------|-----------------|
G|-----------------------------------------|-----------------------------|-----------------|
D|-----------9---------7----9--------------|-----------------------------|-----------7-----|
A|-----------7---------5----7--------------|-9-----10--------------7-----|-----------5-----|
E|-0----0---------0--------------0----0----|-7-----8-----0----0----5-----|-0----0----------|

E|-----------------------------------------|-----------------------------------------|
B|-----------------------------------------|-----------------------------------------|
G|-----------------------------------------|-----------------------------------------|
D|-7----9--------------9---------7----9----|-----------9---------7----9--------------|
A|-5----7--------------7---------5----7----|-----------7---------5----7--------------|
E|-----------0----0---------0--------------|-0----0---------0--------------0----0----|

E|-----------------------------|-----------------|-----------------------------------------|
B|-----------------------------|-----------------|-----------------------------------------|
G|-----------------------------|-----------------|-----------------------------------------|
D|-----------------------------|-----------7-----|-7----9--------------9---------7----9----|
A|-9-----10--------------7-----|-----------5-----|-5----7--------------7---------5----7----|
E|-7-----8-----0----0----5-----|-0----0----------|-----------0----0---------0--------------|

E|-----------------------------------------|-----------------------------|-----------------|
B|-----------------------------------------|-----------------------------|-----------------|
G|-----------------------------------------|-----------------------------|-----------------|
D|-----------9---------7----9--------------|-----------------------------|-----------------|
A|-----------7---------5----7--------------|-9-----10--------------7-----|-----------------|
E|-0----0---------0--------------0----0----|-7-----8-----0----0----5-----|-0----0----12----|

E|-----------------------------------------|-----------------------------------------|
B|-----------------------------------------|-----------------------------------------|
G|-----------------------------------------|-----------------------------------------|
D|-----------------------------------------|-----------------------------------------|
A|-----------------------------------------|-----------------------------------------|
E|-0----0----2----0----0----3----0----0----|-2----0----0----3----0----0----2----3----|

E|-----------------------------------------|-----------------------------------------|
B|-----------------------------------------|-----------------------------------------|
G|-----------------------------------------|-----------------------------------------|
D|-----------------------------------------|-----------------------------------------|
A|-----------------------------------------|-----------------------------------------|
E|-0----0----2----0----0----3----0----0----|-2----0----0----3----0----0----2----3----|

E|-----------------------------------------|-----------------------------------------|
B|-----------------------------------------|-----------------------------------------|
G|-----------------------------------------|-----------------------------------------|
D|-----------------------------------------|-----------------------------------------|
A|-----------------------------------------|-----------------------------------------|
E|-0----0----2----0----0----3----0----0----|-2----0----0----3----0----0----2----3----|

E|-----------------------------------------|-----------------------------------------|
B|-----------------------------------------|-----------------------------------------|
G|-----------------------------------------|-----------------------------------------|
D|-----------------------------------------|-------------------------------5----4----|
A|-----------------------------------------|-------------------------------3----2----|
E|-0----0----2----0----0----3----0----0----|-2----0----0----3----0----0--------------|

E|-----------------------------------------|-----------------------------------------|
B|-----------------------------------------|-----------------------------------------|
G|-----------------------------------------|-----------------------------------------|
D|-----------------------------------------|-----------------------------------------|
A|-----------------------------------------|-----------------------------------------|
E|-0----0----2----0----0----3----0----0----|-2----0----0----3----0----0----2----3----|

E|-----------------------------------------|-----------------------------------------|
B|-----------------------------------------|-----------------------------------------|
G|-----------------------------------------|-----------------------------------------|
D|-----------------------------------------|-------------------------------5----4----|
A|-----------------------------------------|-------------------------------3----2----|
E|-0----0----2----0----0----3----0----0----|-2----0----0----3----0----0--------------|

E|-----------------------------------------|-----------------------------------------|
B|-----------------------------------------|-----------------------------------------|
G|-----------------------------------------|-----------------------------------------|
D|-----------------------------------------|-----------------------------------------|
A|-----------------------------------------|-----------------------------------------|
E|-0----0----2----0----0----3----0----0----|-2----0----0----3----0----0----2----3----|

E|-----------------------------------------|-----------------------------------------|
B|-----------------------------------------|-----------------------------------------|
G|-----------------------------------------|-----------------------------------------|
D|-----------------------------------------|-------------------------------5----4----|
A|-----------------------------------------|-------------------------------3----2----|
E|-0----0----2----0----0----3----0----0----|-2----0----0----3----0----0--------------|

E|---------------------------------|---------------------------------|---------------------------------|
B|---------------------------------|---------------------------------|---------------------------------|
G|---------------------------------|---------------------------------|---------------------------------|
D|-2-----2-----X----5----4----5----|-5---------------4----5----4-----|-2-----2-----X----5----4----5----|
A|-0-----0-----X----3----2----3----|-3-----3----3----2----3----2-----|-0-----0-----X----3----2----3----|
E|---------------------------------|---------------------------------|---------------------------------|

E|---------------------------------|---------------------------------|---------------------------------|
B|---------------------------------|---------------------------------|---------------------------------|
G|---------------------------------|---------------------------------|---------------------------------|
D|-5---------------4----5----7-----|-2-----2-----X----5----4----5----|-5---------------4----5----4-----|
A|-3-----3----3----2----3----5-----|-0-----0-----X----3----2----3----|-3-----3----3----2----3----2-----|
E|---------------------------------|---------------------------------|---------------------------------|

E|---------------------------------|---------------------------------|-----------------------------------------|
B|---------------------------------|---------------------------------|-----------------------------------------|
G|---------------------------------|---------------------------------|-----------------------------------------|
D|-2-----2-----X----5----4----5----|-5---------------4----5----7-----|-7----9--------------9---------7----9----|
A|-0-----0-----X----3----2----3----|-3-----3----3----2----3----5-----|-5----7--------------7---------5----7----|
E|---------------------------------|---------------------------------|-----------0----0---------0--------------|

E|-----------------------------------------|-----------------------------|-----------------|
B|-----------------------------------------|-----------------------------|-----------------|
G|-----------------------------------------|-----------------------------|-----------------|
D|-----------9---------7----9--------------|-----------------------------|-----------7-----|
A|-----------7---------5----7--------------|-9-----10--------------7-----|-----------5-----|
E|-0----0---------0--------------0----0----|-7-----8-----0----0----5-----|-0----0----------|

E|-----------------------------------------|-----------------------------------------|
B|-----------------------------------------|-----------------------------------------|
G|-----------------------------------------|-----------------------------------------|
D|-7----9--------------9---------7----9----|-----------9---------7----9--------------|
A|-5----7--------------7---------5----7----|-----------7---------5----7--------------|
E|-----------0----0---------0--------------|-0----0---------0--------------0----0----|

E|-----------------------------|-----------------|-----------------------------------------|
B|-----------------------------|-----------------|-----------------------------------------|
G|-----------------------------|-----------------|-----------------------------------------|
D|-----------------------------|-----------7-----|-7----9--------------9---------7----9----|
A|-9-----10--------------7-----|-----------5-----|-5----7--------------7---------5----7----|
E|-7-----8-----0----0----5-----|-0----0----------|-----------0----0---------0--------------|

E|-----------------------------------------|-----------------------------|-----------------|
B|-----------------------------------------|-----------------------------|-----------------|
G|-----------------------------------------|-----------------------------|-----------------|
D|-----------9---------7----9--------------|-----------------------------|-----------7-----|
A|-----------7---------5----7--------------|-9-----10--------------7-----|-----------5-----|
E|-0----0---------0--------------0----0----|-7-----8-----0----0----5-----|-0----0----------|

E|-----------------------------------------|-----------------------------------------|
B|-----------------------------------------|-----------------------------------------|
G|-----------------------------------------|-----------------------------------------|
D|-7----9--------------9---------7----9----|-----------9---------7----9--------------|
A|-5----7--------------7---------5----7----|-----------7---------5----7--------------|
E|-----------0----0---------0--------------|-0----0---------0--------------0----0----|

E|-----------------------------|-----------------|-----------------------------------------|
B|-----------------------------|-----------------|-----------------------------------------|
G|-----------------------------|-----------------|-----------------------------------------|
D|-----------------------------|-----------------|-----------------------------------------|
A|-9-----10--------------7-----|-----------9-----|-----------------------------------------|
E|-7-----8-----0----0----5-----|-0----0----7-----|-0----0----2----0----0----3----0----0----|

E|-----------------------------------------|-----------------------------------------|
B|-----------------------------------------|-----------------------------------------|
G|-----------------------------------------|-----------------------------------------|
D|-----------------------------------------|-----------------------------------------|
A|-----------------------------------------|-----------------------------------------|
E|-2----0----0----3----0----0----2----3----|-0----0----2----0----0----3----0----0----|

E|-----------------------------------------|-----------------------------------------|
B|-----------------------------------------|-----------------------------------------|
G|-----------------------------------------|-----------------------------------------|
D|-----------------------------------------|-----------------------------------------|
A|-----------------------------------------|-----------------------------------------|
E|-2----0----0----3----0----0----2----3----|-0----0----2----0----0----3----0----0----|

E|-----------------------------------------|-----------------------------------------|
B|-----------------------------------------|-----------------------------------------|
G|-----------------------------------------|-----------------------------------------|
D|-----------------------------------------|-----------------------------------------|
A|-----------------------------------------|-----------------------------------------|
E|-2----0----0----3----0----0----2----3----|-0----0----2----0----0----3----0----0----|

E|-----------------------------------------|-----------------------------------------|
B|-----------------------------------------|-----------------------------------------|
G|-----------------------------------------|-----------------------------------------|
D|-------------------------------5----4----|-----------------------------------------|
A|-------------------------------3----2----|-----------------------------------------|
E|-2----0----0----3----0----0--------------|-0----0----2----0----0----3----0----0----|

E|-----------------------------------------|-----------------------------------------|
B|-----------------------------------------|-----------------------------------------|
G|-----------------------------------------|-----------------------------------------|
D|-----------------------------------------|-----------------------------------------|
A|-----------------------------------------|-----------------------------------------|
E|-2----0----0----3----0----0----2----3----|-0----0----2----0----0----3----0----0----|

E|-----------------------------------------|-----------------------------------------|
B|-----------------------------------------|-----------------------------------------|
G|-----------------------------------------|-----------------------------------------|
D|-------------------------------5----4----|-----------------------------------------|
A|-------------------------------3----2----|-----------------------------------------|
E|-2----0----0----3----0----0--------------|-0----0----2----0----0----3----0----0----|

E|-----------------------------------------|-----------------------------------------|
B|-----------------------------------------|-----------------------------------------|
G|-----------------------------------------|-----------------------------------------|
D|-----------------------------------------|-----------------------------------------|
A|-----------------------------------------|-----------------------------------------|
E|-2----0----0----3----0----0----2----3----|-0----0----2----0----0----3----0----0----|

E|-----------------------------------------|---------------------------------|---------------------------------|
B|-----------------------------------------|---------------------------------|---------------------------------|
G|-----------------------------------------|---------------------------------|---------------------------------|
D|-------------------------------5----4----|-2-----2-----X----5----4----5----|-5---------------4----5----4-----|
A|-------------------------------3----2----|-0-----0-----X----3----2----3----|-3-----3----3----2----3----2-----|
E|-2----0----0----3----0----0--------------|---------------------------------|---------------------------------|

E|---------------------------------|---------------------------------|---------------------------------|
B|---------------------------------|---------------------------------|---------------------------------|
G|---------------------------------|---------------------------------|---------------------------------|
D|-2-----2-----X----5----4----5----|-5---------------4----5----7-----|-2-----2-----X----5----4----5----|
A|-0-----0-----X----3----2----3----|-3-----3----3----2----3----5-----|-0-----0-----X----3----2----3----|
E|---------------------------------|---------------------------------|---------------------------------|

E|---------------------------------|---------------------------------|---------------------------------|
B|---------------------------------|---------------------------------|---------------------------------|
G|---------------------------------|---------------------------------|---------------------------------|
D|-5---------------4----5----4-----|-2-----2-----X----5----4----5----|-5---------------4----5----7-----|
A|-3-----3----3----2----3----2-----|-0-----0-----X----3----2----3----|-3-----3----3----2----3----5-----|
E|---------------------------------|---------------------------------|---------------------------------|

E|-----------------------------------------|-----------------------------------------|
B|-----------------------------------------|-----------------------------------------|
G|-----------------------------------------|-----------------------------------------|
D|-7----9--------------9---------7----9----|-----------9---------7----9--------------|
A|-5----7--------------7---------5----7----|-----------7---------5----7--------------|
E|-----------0----0---------0--------------|-0----0---------0--------------0----0----|

E|-----------------------------|-----------------|-----------------------------------------|
B|-----------------------------|-----------------|-----------------------------------------|
G|-----------------------------|-----------------|-----------------------------------------|
D|-----------------------------|-----------7-----|-7----9--------------9---------7----9----|
A|-9-----10--------------7-----|-----------5-----|-5----7--------------7---------5----7----|
E|-7-----8-----0----0----5-----|-0----0----------|-----------0----0---------0--------------|

E|-----------------------------------------|-----------------------------|-----------------|
B|-----------------------------------------|-----------------------------|-----------------|
G|-----------------------------------------|-----------------------------|-----------------|
D|-----------9---------7----9--------------|-----------------------------|-----------7-----|
A|-----------7---------5----7--------------|-9-----10--------------7-----|-----------5-----|
E|-0----0---------0--------------0----0----|-7-----8-----0----0----5-----|-0----0----------|

E|-----------------------------------------|-----------------------------------------|
B|-----------------------------------------|-----------------------------------------|
G|-----------------------------------------|-----------------------------------------|
D|-7----9--------------9---------7----9----|-----------9---------7----9--------------|
A|-5----7--------------7---------5----7----|-----------7---------5----7--------------|
E|-----------0----0---------0--------------|-0----0---------0--------------0----0----|

E|-----------------------------|-----------------|-----------------------------------------|
B|-----------------------------|-----------------|-----------------------------------------|
G|-----------------------------|-----------------|-----------------------------------------|
D|-----------------------------|-----------7-----|-7----9--------------9---------7----9----|
A|-9-----10--------------7-----|-----------5-----|-5----7--------------7---------5----7----|
E|-7-----8-----0----0----5-----|-0----0----------|-----------0----0---------0--------------|

E|-----------------------------------------|-----------------------------|-----------------|
B|-----------------------------------------|-----------------------------|-----------------|
G|-----------------------------------------|-----------------------------|-----------------|
D|-----------9---------7----9--------------|-----------------------------|-----------------|
A|-----------7---------5----7--------------|-9-----10--------------7-----|-----------9-----|
E|-0----0---------0--------------0----0----|-7-----8-----0----0----5-----|-0----0----7-----|

E|-----------------------------------------|-----------------------------------------|
B|-----------------------------------------|-----------------------------------------|
G|-----------------------------------------|-----------------------------------------|
D|-----------------------------------------|-----------------------------------------|
A|-4----4----4----4----4----4----4----4----|-4----4----4----4----4----4----4----4----|
E|-2----2----2----2----2----2----2----2----|-2----2----2----2----2----2----2----2----|

E|-----------------------------------------|-----------------------------------------|
B|-----------------------------------------|-----------------------------------------|
G|-----------------------------------------|-----------------------------------------|
D|-----------------------------------------|-----------------------------------------|
A|-4----4----4----4----4----4----4----4----|-4----4----4----4----4----4----4----4----|
E|-2----2----2----2----2----2----2----2----|-2----2----2----2----2----2----2----2----|

E|-----------------------------------------|-----------------------------------------|
B|-----------------------------------------|-----------------------------------------|
G|-----------------------------------------|-----------------------------------------|
D|-----------------------------------------|-----------------------------------------|
A|-4----4----4----4----4----4----4----4----|-4----4----4----4----4----4----4----4----|
E|-2----2----2----2----2----2----2----2----|-2----2----2----2----2----2----2----2----|

E|-----------------------------------------|-----------------------------------------|
B|-----------------------------------------|-----------------------------------------|
G|-----------------------------------------|-----------------------------------------|
D|-----------------------------------------|-----------------------------------------|
A|-4----4----4----4----4----4----4----4----|-4----4----4----4----4----4----4----4----|
E|-2----2----2----2----2----2----2----2----|-2----2----2----2----2----2----2----2----|

E|-----------------------------------------|-----------------------------------------|
B|-----------------------------------------|-----------------------------------------|
G|-----------------------------------------|-----------------------------------------|
D|-----------------------------------------|-----------------------------------------|
A|-6----6----6----6----6----6----6----6----|-6----6----6----6----6----6----6----6----|
E|-4----4----4----4----4----4----4----4----|-4----4----4----4----4----4----4----4----|

E|-----------------------------------------|-----------------------------------------|
B|-----------------------------------------|-----------------------------------------|
G|-----------------------------------------|-----------------------------------------|
D|-----------------------------------------|-----------------------------------------|
A|-6----6----6----6----6----6----6----6----|-6----6----6----6----6----6----6----6----|
E|-4----4----4----4----4----4----4----4----|-4----4----4----4----4----4----4----4----|

E|-----------------------------------------|-----------------------------------------|
B|-----------------------------------------|-----------------------------------------|
G|-----------------------------------------|-----------------------------------------|
D|-----------------------------------------|-----------------------------------------|
A|-6----6----6----6----6----6----6----6----|-6----6----6----6----6----6----6----6----|
E|-4----4----4----4----4----4----4----4----|-4----4----4----4----4----4----4----4----|

E|-----------------------------------------|-----------------------------------------|
B|-----------------------------------------|-----------------------------------------|
G|-----------------------------------------|-----------------------------------------|
D|-----------------------------------------|-----------------------------------------|
A|-6----6----6----6----6----6----6----6----|-6----6----6----6----6----6----6----6----|
E|-4----4----4----4----4----4----4----4----|-4----4----4----4----4----4----4----4----|

E|-----------------------------------------|-----------------------------------------|
B|-----------------------------------------|-----------------------------------------|
G|-----------------------------------------|-----------------------------------------|
D|-----------------------------------------|-----------------------------------------|
A|-8----8----8----8----8----8----8----8----|-8----8----8----8----8----8----8----8----|
E|-6----6----6----6----6----6----6----6----|-6----6----6----6----6----6----6----6----|

E|-----------------------------------------|-----------------------------------------|
B|-----------------------------------------|-----------------------------------------|
G|-----------------------------------------|-----------------------------------------|
D|-----------------------------------------|-----------------------------------------|
A|-8----8----8----8----8----8----8----8----|-8----8----8----8----8----8----8----8----|
E|-6----6----6----6----6----6----6----6----|-6----6----6----6----6----6----6----6----|

E|-----------------------------------------|-----------------------------------------|
B|-----------------------------------------|-----------------------------------------|
G|-----------------------------------------|-----------------------------------------|
D|-----------------------------------------|-----------------------------------------|
A|-8----8----8----8----8----8----8----8----|-8----8----8----8----8----8----8----8----|
E|-6----6----6----6----6----6----6----6----|-6----6----6----6----6----6----6----6----|

E|-----------------------------------------|---------|---------|---------|---------|
B|-----------------------------------------|---------|---------|---------|---------|
G|-----------------------------------------|---------|---------|---------|---------|
D|-----------------------------------------|---------|-5-------|---------|-5-------|
A|-8----8----8----8----8----8----8----8----|-2-------|-3-------|-2-------|-3-------|
E|-6----6----6----6----6----6----6----6----|-0-------|---------|-0-------|---------|

E|--------------------|---------|---------|---------|-----------------------------------------|
B|--------------------|---------|---------|---------|-----------------------------------------|
G|--------------------|---------|---------|---------|-----------------------------------------|
D|--------------------|-5-------|---------|-5-------|-----------------------------------------|
A|-2------------------|-3-------|-2-------|-3-------|-----------------------------------------|
E|-0------X-----X-----|---------|-0-------|---------|-0----0----0----0----0----0----0----0----|

E|-----------------------------------------|-----------------------------------------|
B|-----------------------------------------|-----------------------------------------|
G|-----------------------------------------|-----------------------------------------|
D|-----------------------------------------|-----------------------------------------|
A|-----------------------------------------|-3----3----3----3----3----3----3----3----|
E|-0----0----0----0----0----0----0----0----|-----------------------------------------|

E|-----------------------------------------|-----------------------------------------|
B|-----------------------------------------|-----------------------------------------|
G|-----------------------------------------|-----------------------------------------|
D|-----------------------------------------|-----------------------------------------|
A|-3----3----2----2----0----0--------------|-----------------------------------------|
E|-------------------------------3----3----|-0----0----0----0----0----0----0----0----|

E|-----------------------------------------|-----------------------------------------|
B|-----------------------------------------|-----------------------------------------|
G|-----------------------------------------|-----------------------------------------|
D|-----------------------------------------|-----------------------------------------|
A|-----------------------------------------|-3----3----3----3----3----3----3----3----|
E|-0----0----0----0----0----0----0----0----|-----------------------------------------|

E|-----------------------------------------|-----------------------------------------|
B|-----------------------------------------|-----------------------------------------|
G|-----------------------------------------|-----------------------------------------|
D|-----------------------------------------|-----------------------------------------|
A|-3----3----2----2----0----0--------------|-----------------------------------------|
E|-------------------------------3----3----|-0----0----0----0----0----0----0----0----|

E|-----------------------------------------|-----------------------------------------|
B|-----------------------------------------|-----------------------------------------|
G|-----------------------------------------|-----------------------------------------|
D|-----------------------------------------|-----------------------------------------|
A|-----------------------------------------|-3----3----3----3----3----3----3----3----|
E|-0----0----0----0----0----0----0----0----|-----------------------------------------|

E|-----------------------------------------|-----------------------------------------|
B|-----------------------------------------|-----------------------------------------|
G|-----------------------------------------|-----------------------------------------|
D|-----------------------------------------|-----------------------------------------|
A|-3----3----2----2----0----0--------------|-----------------------------------------|
E|-------------------------------3----3----|-0----0----0----0----0----0----0----0----|

E|-----------------------------------------|-----------------------------------------|
B|-----------------------------------------|-----------------------------------------|
G|-----------------------------------------|-----------------------------------------|
D|-----------------------------------------|-----------------------------------------|
A|-----------------------------------------|-3----3----3----3----3----3----3----3----|
E|-0----0----0----0----0----0----0----0----|-----------------------------------------|

E|-----------------------------------------|-------------------------------------|-----------------------------------------|
B|-----------------------------------------|-------------------------------------|-----------------------------------------|
G|-----------------------------------------|-------------------------------------|-----------------------------------------|
D|-----------------------------------------|-9-----11--------11---9---------9----|-----------11--------11---9---------5----|
A|-3----3----2----2----0----0--------------|-7-----7---------7----7---------7----|-----------7---------7----7---------3----|
E|-------------------------------3----3----|-0-----0----0----0----0----0----0----|-0----0----0----0----0----0----0---------|

E|-----------------------------------------|-----------------------------------------|
B|------------------------------------5----|-----------6---------6----5--------------|
G|------------------------------------5----|-----------5---------5----5--------------|
D|-5----5----7---------3----2---------5----|-----------5---------5----5--------------|
A|-3----3----3----X----3----2----3----3----|-3----3----3----3----3----3----3----3----|
E|-----------------------------------------|-----------------------------------------|

E|-------------------------------------|-----------------------------------------|-----------------------------------------|
B|-------------------------------------|-----------------------------------------|------------------------------------5----|
G|-------------------------------------|-----------------------------------------|------------------------------------5----|
D|-9-----11--------11---9---------9----|-----------11--------11---9---------5----|-5----5----7---------3----2---------5----|
A|-7-----7---------7----7---------7----|-----------7---------7----7---------3----|-3----3----3----X----3----2----3----3----|
E|-0-----0----0----0----0----0----0----|-0----0----0----0----0----0----0---------|-----------------------------------------|

E|-----------------------------------------|-------------------------------------|-----------------------------------------|
B|-----------6---------6----5--------------|-------------------------------------|-----------3---------3----2--------------|
G|-----------5---------5----5--------------|-2-----------------------------------|-----------2---------2----2--------------|
D|-----------5---------5----5--------------|-2-----0----2----0----2---------2----|-----------2---------2----2--------------|
A|-3----3----3----3----3----3----3----3----|-0----------0---------0----0----0----|-0----0---------0--------------0---------|
E|-----------------------------------------|-------------------------------------|------------------------------------0----|

E|-------------------------|-----------------------------------------|-----------------------------------------|
B|-------------------------|-----------------------------------------|-----------------------------------------|
G|-------------------------|-----------------------------------------|-----------------------------------------|
D|-------------------------|-----------------------------------------|-----------------------------------------|
A|-------------------------|---------------------3----2--------------|-----------------------------------------|
E|-3------2----2-----3-----|-3----0----2----3--------------3----2----|-0----0----2----0----2----3----0----0----|

E|-----------------------------------------|-------------------------|-----------------------------------------|
B|-----------------------------------------|-------------------------|-----------------------------------------|
G|-----------------------------------------|-------------------------|-----------------------------------------|
D|-----------------------------------------|-------------------------|-----------------------------------------|
A|-----------------------------------------|-------------------------|---------------------3----2--------------|
E|-2----0----0----3----0----0----2----3----|-3------2----2-----3-----|-3----0----2----3--------------3----2----|

E|-----------------------------------------|-----------------------------------------|
B|-----------------------------------------|-----------------------------------------|
G|-----------------------------------------|-----------------------------------------|
D|-----------------------------------------|-----------------------------------------|
A|-----------------------------------------|-----------------------------------------|
E|-0----0----2----0----2----3----0----0----|-2----0----0----3----0----0----2----3----|

E|-------------------------|-----------------------------------------|---------|---------|
B|-------------------------|-----------------------------------------|---------|---------|
G|-------------------------|-----------------------------------------|---------|---------|
D|-------------------------|-----------------------------------------|---------|---------|
A|-------------------------|---------------------3----2--------------|-2-------|-2-------|
E|-3------2----2-----3-----|-3----0----2----3--------------3----2----|-0-------|-0-------|
Metallica - Blitzkrieg (3)
Metallica - Blitzkrieg (3).gp4