Metallica - Call of Ktulu

Metallica



Title: The Call of Ktulu
Album: Ride the Lighting
Artist: Metallica
Author: James Hetfield, Kirk Hammet, Cliff Burton, Lars Ulrich

Track 1: Guitar 1
E|------5------------------------5---------|------5------------------------5---------|
B|----------------6-------------------6----|----------------6-------------------6----|
G|-----------7--------------7--------------|-----------7--------------7--------------|
D|-0-------------------7-------------------|-0-------------------7-------------------|
A|-----------------------------------------|-----------------------------------------|
E|-----------------------------------------|-----------------------------------------|

E|------6------------------------6---------|------6------------------------6---------|
B|----------------6-------------------6----|----------------6-------------------6----|
G|-----------7--------------7--------------|-----------7--------------7--------------|
D|-0-------------------8-------------------|-0-------------------8-------------------|
A|-----------------------------------------|-----------------------------------------|
E|-----------------------------------------|-----------------------------------------|

E|------8------------------------8---------|------8------------------------8---------|
B|----------------8-------------------8----|----------------8-------------------8----|
G|-----------9--------------9--------------|-----------9--------------9--------------|
D|-0-------------------10------------------|-0-------------------10------------------|
A|-----------------------------------------|-----------------------------------------|
E|-----------------------------------------|-----------------------------------------|

E|------5------------------------5---------|------5------------------------5---------|
B|----------------6-------------------6----|----------------6-------------------6----|
G|-----------7--------------7--------------|-----------7--------------7--------------|
D|-0-------------------7-------------------|-0-------------------7-------------------|
A|-----------------------------------------|-----------------------------------------|
E|-----------------------------------------|-----------------------------------------|

E|------5------------------------5---------|------5------------------------5---------|
B|----------------6-------------------6----|----------------6-------------------6----|
G|-----------7--------------7--------------|-----------7--------------7--------------|
D|-0-------------------7-------------------|-0-------------------7-------------------|
A|-----------------------------------------|-----------------------------------------|
E|-----------------------------------------|-----------------------------------------|

E|------6------------------------6---------|------6------------------------6---------|
B|----------------6-------------------6----|----------------6-------------------6----|
G|-----------7--------------7--------------|-----------7--------------7--------------|
D|-0-------------------8-------------------|-0-------------------8-------------------|
A|-----------------------------------------|-----------------------------------------|
E|-----------------------------------------|-----------------------------------------|

E|------8------------------------8---------|------8------------------------8---------|
B|----------------8-------------------8----|----------------8-------------------8----|
G|-----------9--------------9--------------|-----------9--------------9--------------|
D|-0-------------------10------------------|-0-------------------10------------------|
A|-----------------------------------------|-----------------------------------------|
E|-----------------------------------------|-----------------------------------------|

E|------5------------------------5---------|-5-------|---------------------0-------------------|
B|----------------6-------------------6----|-6-------|----------------0---------0--------------|
G|-----------7--------------7--------------|-7-------|-----------5-------------------5---------|
D|-0-------------------7-------------------|-0-------|------7----------------------------------|
A|-----------------------------------------|---------|-0----------------------------------7----|
E|-----------------------------------------|---------|-----------------------------------------|

E|---------------------0-------------------|---------------------0-------------------|
B|----------------0---------0--------------|----------------0---------0--------------|
G|-----------5-------------------5---------|-----------5-------------------5---------|
D|------7-----------------------------7----|------7----------------------------------|
A|-6---------------------------------------|-0----------------------------------7----|
E|-----------------------------------------|-----------------------------------------|

E|---------------------0-------------------|---------------------0-------------------|
B|----------------0---------0--------------|----------------0---------0--------------|
G|-----------5-------------------5---------|-----------5-------------------5---------|
D|------7-----------------------------7----|------7----------------------------------|
A|-6---------------------------------------|-0----------------------------------7----|
E|-----------------------------------------|-----------------------------------------|

E|---------------------0-------------------|---------------------0-------------------|
B|----------------0---------0--------------|----------------0---------0--------------|
G|-----------5-------------------5---------|-----------5-------------------5---------|
D|------7-----------------------------7----|------7----------------------------------|
A|-6---------------------------------------|-0----------------------------------7----|
E|-----------------------------------------|-----------------------------------------|

E|---------------------0-------------------|----------------1-------------------1----|
B|----------------0---------0--------------|-----------3-------------------3---------|
G|-----------5-------------------5---------|------2-------------------3--------------|
D|------7-----------------------------7----|-0-------------------0-------------------|
A|-6---------------------------------------|-----------------------------------------|
E|-----------------------------------------|-----------------------------------------|

E|----------------1-------------------5----|----------------1-------------------1----|
B|-----------3-------------------3---------|-----------3-------------------3---------|
G|------4-------------------5--------------|------2-------------------3--------------|
D|-0-------------------0-------------------|-0-------------------0-------------------|
A|-----------------------------------------|-----------------------------------------|
E|-----------------------------------------|-----------------------------------------|

E|----------------1-------------------5----|----------------1-------------------1----|
B|-----------3-------------------3---------|-----------3-------------------3---------|
G|------4-------------------5--------------|------2-------------------3--------------|
D|-0-------------------0-------------------|-0-------------------0-------------------|
A|-----------------------------------------|-----------------------------------------|
E|-----------------------------------------|-----------------------------------------|

E|----------------1-------------------5----|----------------1-------------------1----|
B|-----------3-------------------3---------|-----------3-------------------3---------|
G|------4-------------------5--------------|------2-------------------3--------------|
D|-0-------------------0-------------------|-0-------------------0-------------------|
A|-----------------------------------------|-----------------------------------------|
E|-----------------------------------------|-----------------------------------------|

E|----------------1-------------------5----|---------------------0-------------------|
B|-----------3-------------------3---------|----------------0---------0--------------|
G|------4-------------------5--------------|-----------5-------------------5---------|
D|-0-------------------0-------------------|------7----------------------------------|
A|-----------------------------------------|-0----------------------------------7----|
E|-----------------------------------------|-----------------------------------------|

E|---------------------0-------------------|---------------------0-------------------|
B|----------------0---------0--------------|----------------0---------0--------------|
G|-----------5-------------------5---------|-----------5-------------------5---------|
D|------7-----------------------------7----|------7----------------------------------|
A|-6---------------------------------------|-0----------------------------------7----|
E|-----------------------------------------|-----------------------------------------|

E|---------------------0-------------------|---------------------0-------------------|
B|----------------0---------0--------------|----------------0---------0--------------|
G|-----------5-------------------5---------|-----------5-------------------5---------|
D|------7-----------------------------7----|------7----------------------------------|
A|-6---------------------------------------|-0----------------------------------7----|
E|-----------------------------------------|-----------------------------------------|

E|---------------------0-------------------|---------------------0-------------------|
B|----------------0---------0--------------|----------------0---------0--------------|
G|-----------5-------------------5---------|-----------5-------------------5---------|
D|------7-----------------------------7----|------7----------------------------------|
A|-6---------------------------------------|-0----------------------------------7----|
E|-----------------------------------------|-----------------------------------------|

E|---------------------0-------------------|----------------1-------------------1----|
B|----------------0---------0--------------|-----------3-------------------3---------|
G|-----------5-------------------5---------|------2-------------------3--------------|
D|------7-----------------------------7----|-0-------------------0-------------------|
A|-6---------------------------------------|-----------------------------------------|
E|-----------------------------------------|-----------------------------------------|

E|----------------1-------------------5----|----------------1-------------------1----|
B|-----------3-------------------3---------|-----------3-------------------3---------|
G|------4-------------------5--------------|------2-------------------3--------------|
D|-0-------------------0-------------------|-0-------------------0-------------------|
A|-----------------------------------------|-----------------------------------------|
E|-----------------------------------------|-----------------------------------------|

E|----------------1-------------------5----|----------------1-------------------1----|
B|-----------3-------------------3---------|-----------3-------------------3---------|
G|------4-------------------5--------------|------2-------------------3--------------|
D|-0-------------------0-------------------|-0-------------------0-------------------|
A|-----------------------------------------|-----------------------------------------|
E|-----------------------------------------|-----------------------------------------|

E|----------------1-------------------5----|----------------1-------------------1----|
B|-----------3-------------------3---------|-----------3-------------------3---------|
G|------4-------------------5--------------|------2-------------------3--------------|
D|-0-------------------0-------------------|-0-------------------0-------------------|
A|-----------------------------------------|-----------------------------------------|
E|-----------------------------------------|-----------------------------------------|

E|----------------1-------------------5----|---------|---------|---------|---------|
B|-----------3-------------------3---------|---------|---------|---------|---------|
G|------4-------------------5--------------|-%-------|-%-------|-%-------|-%-------|
D|-0-------------------0-------------------|-%-------|-%-------|-%-------|-%-------|
A|-----------------------------------------|---------|---------|---------|---------|
E|-----------------------------------------|---------|---------|---------|---------|

E|---------|---------|---------|---------|---------|---------|---------|---------|---------|
B|---------|---------|---------|---------|---------|---------|---------|---------|---------|
G|-%-------|-%-------|-%-------|-%-------|-%-------|-%-------|-%-------|-%-------|-%-------|
D|-%-------|-%-------|-%-------|-%-------|-%-------|-%-------|-%-------|-%-------|-%-------|
A|---------|---------|---------|---------|---------|---------|---------|---------|---------|
E|---------|---------|---------|---------|---------|---------|---------|---------|---------|

E|---------|---------|---------|---------|---------|---------|---------|---------|---------|
B|---------|---------|---------|---------|---------|---------|---------|---------|---------|
G|-%-------|-%-------|-%-------|-%-------|-%-------|-%-------|-%-------|-%-------|-%-------|
D|-%-------|-%-------|-%-------|-%-------|-%-------|-%-------|-%-------|-%-------|-%-------|
A|---------|---------|---------|---------|---------|---------|---------|---------|---------|
E|---------|---------|---------|---------|---------|---------|---------|---------|---------|

E|---------|---------|---------|---------|---------|---------|---------|---------|---------|
B|---------|---------|---------|---------|---------|---------|---------|---------|---------|
G|-%-------|-%-------|-%-------|-%-------|-%-------|-%-------|-%-------|-%-------|-%-------|
D|-%-------|-%-------|-%-------|-%-------|-%-------|-%-------|-%-------|-%-------|-%-------|
A|---------|---------|---------|---------|---------|---------|---------|---------|---------|
E|---------|---------|---------|---------|---------|---------|---------|---------|---------|

E|---------|---------|---------|---------|---------|---------|---------|---------|---------|
B|---------|---------|---------|---------|---------|---------|---------|---------|---------|
G|-%-------|-%-------|-%-------|-%-------|-%-------|-%-------|-%-------|-%-------|-%-------|
D|-%-------|-%-------|-%-------|-%-------|-%-------|-%-------|-%-------|-%-------|-%-------|
A|---------|---------|---------|---------|---------|---------|---------|---------|---------|
E|---------|---------|---------|---------|---------|---------|---------|---------|---------|

E|---------|---------|---------|---------|---------|---------|---------|---------|---------|
B|---------|---------|---------|---------|---------|---------|---------|---------|---------|
G|-%-------|-%-------|-%-------|-%-------|-%-------|-%-------|-%-------|-%-------|-%-------|
D|-%-------|-%-------|-%-------|-%-------|-%-------|-%-------|-%-------|-%-------|-%-------|
A|---------|---------|---------|---------|---------|---------|---------|---------|---------|
E|---------|---------|---------|---------|---------|---------|---------|---------|---------|

E|---------|---------|---------|---------|---------|---------|---------|---------|---------|
B|---------|---------|---------|---------|---------|---------|---------|---------|---------|
G|-%-------|-%-------|-%-------|-%-------|-%-------|-%-------|-%-------|-%-------|-%-------|
D|-%-------|-%-------|-%-------|-%-------|-%-------|-%-------|-%-------|-%-------|-%-------|
A|---------|---------|---------|---------|---------|---------|---------|---------|---------|
E|---------|---------|---------|---------|---------|---------|---------|---------|---------|

E|---------|---------|---------|---------|---------|---------|---------|---------|---------|
B|---------|---------|---------|---------|---------|---------|---------|---------|---------|
G|-%-------|-%-------|-%-------|-%-------|-%-------|-%-------|-%-------|-%-------|-%-------|
D|-%-------|-%-------|-%-------|-%-------|-%-------|-%-------|-%-------|-%-------|-%-------|
A|---------|---------|---------|---------|---------|---------|---------|---------|---------|
E|---------|---------|---------|---------|---------|---------|---------|---------|---------|

E|---------|---------|---------|---------|---------|---------|---------|---------|---------|
B|---------|---------|---------|---------|---------|---------|---------|---------|---------|
G|-%-------|-%-------|-%-------|-%-------|-%-------|-%-------|-%-------|-%-------|-%-------|
D|-%-------|-%-------|-%-------|-%-------|-%-------|-%-------|-%-------|-%-------|-%-------|
A|---------|---------|---------|---------|---------|---------|---------|---------|---------|
E|---------|---------|---------|---------|---------|---------|---------|---------|---------|

E|---------|---------|---------|---------|---------|---------|---------|---------|---------|
B|---------|---------|---------|---------|---------|---------|---------|---------|---------|
G|-%-------|-%-------|-%-------|-%-------|-%-------|-%-------|-%-------|-%-------|-%-------|
D|-%-------|-%-------|-%-------|-%-------|-%-------|-%-------|-%-------|-%-------|-%-------|
A|---------|---------|---------|---------|---------|---------|---------|---------|---------|
E|---------|---------|---------|---------|---------|---------|---------|---------|---------|

E|---------|---------|---------|---------|---------|---------|---------|---------|---------|
B|---------|---------|---------|---------|---------|---------|---------|---------|---------|
G|-%-------|-%-------|-%-------|-%-------|-%-------|-%-------|-%-------|-%-------|-%-------|
D|-%-------|-%-------|-%-------|-%-------|-%-------|-%-------|-%-------|-%-------|-%-------|
A|---------|---------|---------|---------|---------|---------|---------|---------|---------|
E|---------|---------|---------|---------|---------|---------|---------|---------|---------|

E|---------|---------|---------|---------|---------|---------|---------|---------|---------|
B|---------|---------|---------|---------|---------|---------|---------|---------|---------|
G|-%-------|-%-------|-%-------|-%-------|-%-------|-%-------|-%-------|-%-------|-%-------|
D|-%-------|-%-------|-%-------|-%-------|-%-------|-%-------|-%-------|-%-------|-%-------|
A|---------|---------|---------|---------|---------|---------|---------|---------|---------|
E|---------|---------|---------|---------|---------|---------|---------|---------|---------|

E|---------|---------|---------|---------|---------|---------|---------|---------|---------|
B|---------|---------|---------|---------|---------|---------|---------|---------|---------|
G|-%-------|-%-------|-%-------|-%-------|-%-------|-%-------|-%-------|-%-------|-%-------|
D|-%-------|-%-------|-%-------|-%-------|-%-------|-%-------|-%-------|-%-------|-%-------|
A|---------|---------|---------|---------|---------|---------|---------|---------|---------|
E|---------|---------|---------|---------|---------|---------|---------|---------|---------|

E|---------|---------|---------|---------|---------|---------|---------|---------|---------|
B|---------|---------|---------|---------|---------|---------|---------|---------|---------|
G|-%-------|-%-------|-%-------|-%-------|-%-------|-%-------|-%-------|-%-------|-%-------|
D|-%-------|-%-------|-%-------|-%-------|-%-------|-%-------|-%-------|-%-------|-%-------|
A|---------|---------|---------|---------|---------|---------|---------|---------|---------|
E|---------|---------|---------|---------|---------|---------|---------|---------|---------|

E|---------|---------|---------|---------|---------|---------|---------|---------|---------|
B|---------|---------|---------|---------|---------|---------|---------|---------|---------|
G|-%-------|-%-------|-%-------|-%-------|-%-------|-%-------|-%-------|-%-------|-%-------|
D|-%-------|-%-------|-%-------|-%-------|-%-------|-%-------|-%-------|-%-------|-%-------|
A|---------|---------|---------|---------|---------|---------|---------|---------|---------|
E|---------|---------|---------|---------|---------|---------|---------|---------|---------|

E|---------|---------|---------|---------|---------|---------|---------|---------|---------|
B|---------|---------|---------|---------|---------|---------|---------|---------|---------|
G|-%-------|-%-------|-%-------|-%-------|-%-------|-%-------|-%-------|-%-------|-%-------|
D|-%-------|-%-------|-%-------|-%-------|-%-------|-%-------|-%-------|-%-------|-%-------|
A|---------|---------|---------|---------|---------|---------|---------|---------|---------|
E|---------|---------|---------|---------|---------|---------|---------|---------|---------|

E|---------|---------|---------|---------|---------|---------|---------|---------|---------|
B|---------|---------|---------|---------|---------|---------|---------|---------|---------|
G|-%-------|-%-------|-%-------|-%-------|-%-------|-%-------|-%-------|-%-------|-%-------|
D|-%-------|-%-------|-%-------|-%-------|-%-------|-%-------|-%-------|-%-------|-%-------|
A|---------|---------|---------|---------|---------|---------|---------|---------|---------|
E|---------|---------|---------|---------|---------|---------|---------|---------|---------|

E|---------|---------|---------|---------|---------|---------|---------|---------|---------|
B|---------|---------|---------|---------|---------|---------|---------|---------|---------|
G|-%-------|-%-------|-%-------|-%-------|-%-------|-%-------|-%-------|-%-------|-%-------|
D|-%-------|-%-------|-%-------|-%-------|-%-------|-%-------|-%-------|-%-------|-%-------|
A|---------|---------|---------|---------|---------|---------|---------|---------|---------|
E|---------|---------|---------|---------|---------|---------|---------|---------|---------|

E|---------|---------|---------|---------|---------|---------|---------|---------|---------|
B|---------|---------|---------|---------|---------|---------|---------|---------|---------|
G|-%-------|-%-------|-%-------|-%-------|-%-------|-%-------|-%-------|-%-------|-%-------|
D|-%-------|-%-------|-%-------|-%-------|-%-------|-%-------|-%-------|-%-------|-%-------|
A|---------|---------|---------|---------|---------|---------|---------|---------|---------|
E|---------|---------|---------|---------|---------|---------|---------|---------|---------|

E|---------|---------|---------|---------|---------|---------|---------|---------|---------|
B|---------|---------|---------|---------|---------|---------|---------|---------|---------|
G|-%-------|-%-------|-%-------|-%-------|-%-------|-%-------|-%-------|-%-------|-%-------|
D|-%-------|-%-------|-%-------|-%-------|-%-------|-%-------|-%-------|-%-------|-%-------|
A|---------|---------|---------|---------|---------|---------|---------|---------|---------|
E|---------|---------|---------|---------|---------|---------|---------|---------|---------|

E|---------|---------|---------|---------|---------|---------|---------|---------|---------|
B|---------|---------|---------|---------|---------|---------|---------|---------|---------|
G|-%-------|-%-------|-%-------|-%-------|-%-------|-%-------|-%-------|-%-------|-%-------|
D|-%-------|-%-------|-%-------|-%-------|-%-------|-%-------|-%-------|-%-------|-%-------|
A|---------|---------|---------|---------|---------|---------|---------|---------|---------|
E|---------|---------|---------|---------|---------|---------|---------|---------|---------|

E|---------|---------|---------|---------|---------|---------|---------|---------|---------|
B|---------|---------|---------|---------|---------|---------|---------|---------|---------|
G|-%-------|-%-------|-%-------|-%-------|-%-------|-%-------|-%-------|-%-------|-%-------|
D|-%-------|-%-------|-%-------|-%-------|-%-------|-%-------|-%-------|-%-------|-%-------|
A|---------|---------|---------|---------|---------|---------|---------|---------|---------|
E|---------|---------|---------|---------|---------|---------|---------|---------|---------|

E|---------|---------|---------|---------|---------|---------|---------|---------|---------|
B|---------|---------|---------|---------|---------|---------|---------|---------|---------|
G|-%-------|-%-------|-%-------|-%-------|-%-------|-%-------|-%-------|-%-------|-%-------|
D|-%-------|-%-------|-%-------|-%-------|-%-------|-%-------|-%-------|-%-------|-%-------|
A|---------|---------|---------|---------|---------|---------|---------|---------|---------|
E|---------|---------|---------|---------|---------|---------|---------|---------|---------|

E|---------|---------|---------|---------|---------|---------|---------|---------|---------|
B|---------|---------|---------|---------|---------|---------|---------|---------|---------|
G|-%-------|-%-------|-%-------|-%-------|-%-------|-%-------|-%-------|-%-------|-%-------|
D|-%-------|-%-------|-%-------|-%-------|-%-------|-%-------|-%-------|-%-------|-%-------|
A|---------|---------|---------|---------|---------|---------|---------|---------|---------|
E|---------|---------|---------|---------|---------|---------|---------|---------|---------|

E|---------|---------|---------|---------|---------|---------|---------|---------|---------|
B|---------|---------|---------|---------|---------|---------|---------|---------|---------|
G|-%-------|-%-------|-%-------|-%-------|-%-------|-%-------|-%-------|-%-------|-%-------|
D|-%-------|-%-------|-%-------|-%-------|-%-------|-%-------|-%-------|-%-------|-%-------|
A|---------|---------|---------|---------|---------|---------|---------|---------|---------|
E|---------|---------|---------|---------|---------|---------|---------|---------|---------|

E|---------|---------|---------|------5------------------------5---------|------5------------------------5---------|
B|---------|---------|---------|----------------6-------------------6----|----------------6-------------------6----|
G|-%-------|-%-------|-%-------|-----------7--------------7--------------|-----------7--------------7--------------|
D|-%-------|-%-------|-%-------|-0-------------------7-------------------|-0-------------------7-------------------|
A|---------|---------|---------|-----------------------------------------|-----------------------------------------|
E|---------|---------|---------|-----------------------------------------|-----------------------------------------|

E|------6------------------------6---------|------6------------------------6---------|
B|----------------6-------------------6----|----------------6-------------------6----|
G|-----------7--------------7--------------|-----------7--------------7--------------|
D|-0-------------------8-------------------|-0-------------------8-------------------|
A|-----------------------------------------|-----------------------------------------|
E|-----------------------------------------|-----------------------------------------|

E|------8------------------------8---------|------8------------------------8---------|
B|----------------8-------------------8----|----------------8-------------------8----|
G|-----------9--------------9--------------|-----------9--------------9--------------|
D|-0-------------------10------------------|-0-------------------10------------------|
A|-----------------------------------------|-----------------------------------------|
E|-----------------------------------------|-----------------------------------------|

E|------5------------------------5---------|------5------------------------5---------|
B|----------------6-------------------6----|----------------6-------------------6----|
G|-----------7--------------7--------------|-----------7--------------7--------------|
D|-0-------------------7-------------------|-0-------------------7-------------------|
A|-----------------------------------------|-----------------------------------------|
E|-----------------------------------------|-----------------------------------------|

E|------5------------------------5---------|------5------------------------5---------|
B|----------------6-------------------6----|----------------6-------------------6----|
G|-----------7--------------7--------------|-----------7--------------7--------------|
D|-0-------------------7-------------------|-0-------------------7-------------------|
A|-----------------------------------------|-----------------------------------------|
E|-----------------------------------------|-----------------------------------------|

E|------6------------------------6---------|------6------------------------6---------|
B|----------------6-------------------6----|----------------6-------------------6----|
G|-----------7--------------7--------------|-----------7--------------7--------------|
D|-0-------------------8-------------------|-0-------------------8-------------------|
A|-----------------------------------------|-----------------------------------------|
E|-----------------------------------------|-----------------------------------------|

E|------8------------------------8---------|------8------------------------8---------|
B|----------------8-------------------8----|----------------8-------------------8----|
G|-----------9--------------9--------------|-----------9--------------9--------------|
D|-0-------------------10------------------|-0-------------------10------------------|
A|-----------------------------------------|-----------------------------------------|
E|-----------------------------------------|-----------------------------------------|

E|------5------------------------5---------|-5-------|---------|---------|---------|
B|----------------6-------------------6----|-6-------|---------|---------|---------|
G|-----------7--------------7--------------|-7-------|-%-------|-%-------|-%-------|
D|-0-------------------7-------------------|-0-------|-%-------|-%-------|-%-------|
A|-----------------------------------------|---------|---------|---------|---------|
E|-----------------------------------------|---------|---------|---------|---------|

E|---------|---------|---------|---------|
B|---------|---------|---------|---------|
G|-%-------|-%-------|-%-------|-%-------|
D|-%-------|-%-------|-%-------|-%-------|
A|---------|---------|---------|---------|
E|---------|---------|---------|---------|
Metallica - Call of Ktulu
Metallica - Call of Ktulu.gp3