Metallica - Commando

Metallica



Title: Commando
Album: 
Artist: Metallica
Author: The Ramones

Track 1: Guitar
E|---------|-------------------------------------|-------------------------------------|
B|---------|-------------------------------------|-------------------------------------|
G|-%-------|-6-----------------------------------|-------------------------------------|
D|-%-------|-6-----6----6----6----6----6----6----|-2-----------------------------------|
A|---------|-4-----4----4----4----4----4----4----|-2-----2----2----2----2----2----2----|
E|---------|-------------------------------------|-0-----0----0----0----0----0----0----|

E|-------------------------------------|-------------------------------------|-------------------------------------|
B|-------------------------------------|-------------------------------------|-------------------------------------|
G|-2-----------------------------------|-4-----------------------------------|-6-----------------------------------|
D|-2-----2----2----2----2----2----2----|-4-----4----4----4----4----4----4----|-6-----6----6----6----6----6----6----|
A|-0-----0----0----0----0----0----0----|-2-----2----2----2----2----2----2----|-4-----4----4----4----4----4----4----|
E|-------------------------------------|-------------------------------------|-------------------------------------|

E|-------------------------------------|-------------------------------------|-------------------------------------|
B|-------------------------------------|-------------------------------------|-------------------------------------|
G|-------------------------------------|-2-----------------------------------|-4-----------------------------------|
D|-2-----------------------------------|-2-----2----2----2----2----2----2----|-4-----4----4----4----4----4----4----|
A|-2-----2----2----2----2----2----2----|-0-----0----0----0----0----0----0----|-2-----2----2----2----2----2----2----|
E|-0-----0----0----0----0----0----0----|-------------------------------------|-------------------------------------|

E|-------------------------------------|-------------------------------------|-------------------------------------|
B|-------------------------------------|-------------------------------------|-------------------------------------|
G|-4----6----6----6-----6----6----6----|-4----6----6----6-----6----6----6----|-4----6----6----6-----6----6----6----|
D|-4----6----6----6-----6----6----6----|-4----6----6----6-----6----6----6----|-4----6----6----6-----6----6----6----|
A|-2----4----4----4-----4----4----4----|-2----4----4----4-----4----4----4----|-2----4----4----4-----4----4----4----|
E|-------------------------------------|-------------------------------------|-------------------------------------|

E|-------------------------------------|-------------------------------------|-------------------------------------|
B|-------------------------------------|-------------------------------------|-------------------------------------|
G|-4----6----6----6-----6----6----6----|-------------------------------------|-------------------------------------|
D|-4----6----6----6-----6----6----6----|-2----4----4----4-----4----4----4----|-2----4----4----4-----4----4----4----|
A|-2----4----4----4-----4----4----4----|-2----4----4----4-----4----4----4----|-2----4----4----4-----4----4----4----|
E|-------------------------------------|-0----2----2----2-----2----2----2----|-0----2----2----2-----2----2----2----|

E|-------------------------------------|-------------------------------------|-------------------------------------|
B|-------------------------------------|-------------------------------------|-------------------------------------|
G|-4----6----6----6-----6----6----6----|-4----6----6----6-----6----6----6----|-4----6----6----6-----6----6----6----|
D|-4----6----6----6-----6----6----6----|-4----6----6----6-----6----6----6----|-4----6----6----6-----6----6----6----|
A|-2----4----4----4-----4----4----4----|-2----4----4----4-----4----4----4----|-2----4----4----4-----4----4----4----|
E|-------------------------------------|-------------------------------------|-------------------------------------|

E|-------------------------------------|-------------------------------------|-------------------------------------|
B|-------------------------------------|-------------------------------------|-------------------------------------|
G|-4----6----6----6-----6----6----6----|-------------------------------------|-------------------------------------|
D|-4----6----6----6-----6----6----6----|-2----4----4----4-----4----4----4----|-2----4----4----4-----4----4----4----|
A|-2----4----4----4-----4----4----4----|-2----4----4----4-----4----4----4----|-2----4----4----4-----4----4----4----|
E|-------------------------------------|-0----2----2----2-----2----2----2----|-0----2----2----2-----2----2----2----|

E|-------------------------------------|-------------------------------------|-------------------------------------|
B|-------------------------------------|-------------------------------------|-------------------------------------|
G|-4----6----6----6-----6----6----6----|-4----6----6----6-----6----6----6----|-4----6----6----6-----6----6----6----|
D|-4----6----6----6-----6----6----6----|-4----6----6----6-----6----6----6----|-4----6----6----6-----6----6----6----|
A|-2----4----4----4-----4----4----4----|-2----4----4----4-----4----4----4----|-2----4----4----4-----4----4----4----|
E|-------------------------------------|-------------------------------------|-------------------------------------|

E|-------------------------------------|-------------------------------------|-------------------------------------|
B|-------------------------------------|-------------------------------------|-------------------------------------|
G|-4----6----6----6-----6----6----6----|-------------------------------------|-------------------------------------|
D|-4----6----6----6-----6----6----6----|-2----4----4----4-----4----4----4----|-2----4----4----4-----4----4----4----|
A|-2----4----4----4-----4----4----4----|-2----4----4----4-----4----4----4----|-2----4----4----4-----4----4----4----|
E|-------------------------------------|-0----2----2----2-----2----2----2----|-0----2----2----2-----2----2----2----|

E|-------------------------------------|-------------------------------------|-------------------------------------|
B|-------------------------------------|-------------------------------------|-------------------------------------|
G|-6-----------------------------------|-------------------------------------|-2-----------------------------------|
D|-6-----6----6----6----6----6----6----|-2-----------------------------------|-2-----2----2----2----2----2----2----|
A|-4-----4----4----4----4----4----4----|-2-----2----2----2----2----2----2----|-0-----0----0----0----0----0----0----|
E|-------------------------------------|-0-----0----0----0----0----0----0----|-------------------------------------|

E|-------------------------------------|-------------------------------------|-------------------------------------|
B|-------------------------------------|-------------------------------------|-------------------------------------|
G|-4-----------------------------------|-6-----------------------------------|-------------------------------------|
D|-4-----4----4----4----4----4----4----|-6-----6----6----6----6----6----6----|-2-----------------------------------|
A|-2-----2----2----2----2----2----2----|-4-----4----4----4----4----4----4----|-2-----2----2----2----2----2----2----|
E|-------------------------------------|-------------------------------------|-0-----0----0----0----0----0----0----|

E|-------------------------------------|-------------------------------------|-------------------------------------|
B|-------------------------------------|-------------------------------------|-------------------------------------|
G|-2-----------------------------------|-4-----------------------------------|-6-----------------------------------|
D|-2-----2----2----2----2----2----2----|-4-----4----4----4----4----4----4----|-6-----6----6----6----6----6----6----|
A|-0-----0----0----0----0----0----0----|-2-----2----2----2----2----2----2----|-4-----4----4----4----4----4----4----|
E|-------------------------------------|-------------------------------------|-------------------------------------|

E|-------------------------------------|-------------------------------------|-------------------------------------|
B|-------------------------------------|-------------------------------------|-------------------------------------|
G|-------------------------------------|-2-----------------------------------|-4-----------------------------------|
D|-2-----------------------------------|-2-----2----2----2----2----2----2----|-4-----4----4----4----4----4----4----|
A|-2-----2----2----2----2----2----2----|-0-----0----0----0----0----0----0----|-2-----2----2----2----2----2----2----|
E|-0-----0----0----0----0----0----0----|-------------------------------------|-------------------------------------|

E|-------------------------------------|-------------------------------------|-------------------------------------|
B|-------------------------------------|-------------------------------------|-------------------------------------|
G|-6-----------------------------------|-------------------------------------|-2-----------------------------------|
D|-6-----6----6----6----6----6----6----|-2-----------------------------------|-2-----2----2----2----2----2----2----|
A|-4-----4----4----4----4----4----4----|-2-----2----2----2----2----2----2----|-0-----0----0----0----0----0----0----|
E|-------------------------------------|-0-----0----0----0----0----0----0----|-------------------------------------|

E|-------------------------------------|-------------------------------------|-------------------------------------|
B|-------------------------------------|-------------------------------------|-------------------------------------|
G|-4-----------------------------------|-------------------------------------|-------------------------------------|
D|-4-----4----4----4----4----4----4----|-2----4----4----4-----4----4----4----|-2----4----4----4-----4----4----4----|
A|-2-----2----2----2----2----2----2----|-2----4----4----4-----4----4----4----|-2----4----4----4-----4----4----4----|
E|-------------------------------------|-0----2----2----2-----2----2----2----|-0----2----2----2-----2----2----2----|

E|-------------------------------------|-------------------------------------|-------------------------------------|
B|-------------------------------------|-------------------------------------|-------------------------------------|
G|-4----6----6----6-----6----6----6----|-4----6----6----6-----6----6----6----|-4----6----6----6-----6----6----6----|
D|-4----6----6----6-----6----6----6----|-4----6----6----6-----6----6----6----|-4----6----6----6-----6----6----6----|
A|-2----4----4----4-----4----4----4----|-2----4----4----4-----4----4----4----|-2----4----4----4-----4----4----4----|
E|-------------------------------------|-------------------------------------|-------------------------------------|

E|-------------------------------------|-------------------------------------|-------------------------------------|
B|-------------------------------------|-------------------------------------|-------------------------------------|
G|-4----6----6----6-----6----6----6----|-------------------------------------|-------------------------------------|
D|-4----6----6----6-----6----6----6----|-2----4----4----4-----4----4----4----|-2----4----4----4-----4----4----4----|
A|-2----4----4----4-----4----4----4----|-2----4----4----4-----4----4----4----|-2----4----4----4-----4----4----4----|
E|-------------------------------------|-0----2----2----2-----2----2----2----|-0----2----2----2-----2----2----2----|

E|-------------------------------------|-------------------------------------|-------------------------------------|
B|-------------------------------------|-------------------------------------|-------------------------------------|
G|-4----6----6----6-----6----6----6----|-4----6----6----6-----6----6----6----|-4----6----6----6-----6----6----6----|
D|-4----6----6----6-----6----6----6----|-4----6----6----6-----6----6----6----|-4----6----6----6-----6----6----6----|
A|-2----4----4----4-----4----4----4----|-2----4----4----4-----4----4----4----|-2----4----4----4-----4----4----4----|
E|-------------------------------------|-------------------------------------|-------------------------------------|

E|-------------------------------------|-------------------------------------|-------------------------------------|
B|-------------------------------------|-------------------------------------|-------------------------------------|
G|-4----6----6----6-----6----6----6----|-------------------------------------|-------------------------------------|
D|-4----6----6----6-----6----6----6----|-2----4----4----4-----4----4----4----|-2----4----4----4-----4----4----4----|
A|-2----4----4----4-----4----4----4----|-2----4----4----4-----4----4----4----|-2----4----4----4-----4----4----4----|
E|-------------------------------------|-0----2----2----2-----2----2----2----|-0----2----2----2-----2----2----2----|

E|-------------------------------------|-------------------------------------|-------------------------------------|
B|-------------------------------------|-------------------------------------|-------------------------------------|
G|-4----6----6----6-----6----6----6----|-4----6----6----6-----6----6----6----|-4----6----6----6-----6----6----6----|
D|-4----6----6----6-----6----6----6----|-4----6----6----6-----6----6----6----|-4----6----6----6-----6----6----6----|
A|-2----4----4----4-----4----4----4----|-2----4----4----4-----4----4----4----|-2----4----4----4-----4----4----4----|
E|-------------------------------------|-------------------------------------|-------------------------------------|

E|-------------------------------------|-------------------------------------|-------------------------------------|
B|-------------------------------------|-------------------------------------|-------------------------------------|
G|-4----6----6----6-----6----6----6----|-------------------------------------|-------------------------------------|
D|-4----6----6----6-----6----6----6----|-2----4----4----4-----4----4----4----|-2----4----4----4-----4----4----4----|
A|-2----4----4----4-----4----4----4----|-2----4----4----4-----4----4----4----|-2----4----4----4-----4----4----4----|
E|-------------------------------------|-0----2----2----2-----2----2----2----|-0----2----2----2-----2----2----2----|

E|-------------------------------------|-------------------------------------|-------------------------------------|
B|-------------------------------------|-------------------------------------|-------------------------------------|
G|-6-----------------------------------|-------------------------------------|-2-----------------------------------|
D|-6-----6----6----6----6----6----6----|-2-----------------------------------|-2-----2----2----2----2----2----2----|
A|-4-----4----4----4----4----4----4----|-2-----2----2----2----2----2----2----|-0-----0----0----0----0----0----0----|
E|-------------------------------------|-0-----0----0----0----0----0----0----|-------------------------------------|

E|-------------------------------------|-------------------------------------|-------------------------------------|
B|-------------------------------------|-------------------------------------|-------------------------------------|
G|-4-----------------------------------|-6-----------------------------------|-------------------------------------|
D|-4-----4----4----4----4----4----4----|-6-----6----6----6----6----6----6----|-2-----------------------------------|
A|-2-----2----2----2----2----2----2----|-4-----4----4----4----4----4----4----|-2-----2----2----2----2----2----2----|
E|-------------------------------------|-------------------------------------|-0-----0----0----0----0----0----0----|

E|-------------------------------------|-------------------------------------|-------------------------------------|
B|-------------------------------------|-------------------------------------|-------------------------------------|
G|-2-----------------------------------|-4-----------------------------------|-6-----------------------------------|
D|-2-----2----2----2----2----2----2----|-4-----4----4----4----4----4----4----|-6-----6----6----6----6----6----6----|
A|-0-----0----0----0----0----0----0----|-2-----2----2----2----2----2----2----|-4-----4----4----4----4----4----4----|
E|-------------------------------------|-------------------------------------|-------------------------------------|

E|-------------------------------------|-------------------------------------|-------------------------------------|
B|-------------------------------------|-------------------------------------|-------------------------------------|
G|-------------------------------------|-2-----------------------------------|-4-----------------------------------|
D|-2-----------------------------------|-2-----2----2----2----2----2----2----|-4-----4----4----4----4----4----4----|
A|-2-----2----2----2----2----2----2----|-0-----0----0----0----0----0----0----|-2-----2----2----2----2----2----2----|
E|-0-----0----0----0----0----0----0----|-------------------------------------|-------------------------------------|

E|-------------------------------------|-------------------------------------|-------------------------------------|
B|-------------------------------------|-------------------------------------|-------------------------------------|
G|-6-----------------------------------|-------------------------------------|-2-----------------------------------|
D|-6-----6----6----6----6----6----6----|-2-----------------------------------|-2-----2----2----2----2----2----2----|
A|-4-----4----4----4----4----4----4----|-2-----2----2----2----2----2----2----|-0-----0----0----0----0----0----0----|
E|-------------------------------------|-0-----0----0----0----0----0----0----|-------------------------------------|

E|-------------------------------------|-------------------------------------|-------------------------------------|
B|-------------------------------------|-------------------------------------|-------------------------------------|
G|-4-----------------------------------|-------------------------------------|-------------------------------------|
D|-4-----4----4----4----4----4----4----|-2----4----4----4-----4----4----4----|-2----4----4----4-----4----4----4----|
A|-2-----2----2----2----2----2----2----|-2----4----4----4-----4----4----4----|-2----4----4----4-----4----4----4----|
E|-------------------------------------|-0----2----2----2-----2----2----2----|-0----2----2----2-----2----2----2----|

E|-------------------------------------|-------------------------------------|-------------------------------------|
B|-------------------------------------|-------------------------------------|-------------------------------------|
G|-4----6----6----6-----6----6----6----|-4----6----6----6-----6----6----6----|-4----6----6----6-----6----6----6----|
D|-4----6----6----6-----6----6----6----|-4----6----6----6-----6----6----6----|-4----6----6----6-----6----6----6----|
A|-2----4----4----4-----4----4----4----|-2----4----4----4-----4----4----4----|-2----4----4----4-----4----4----4----|
E|-------------------------------------|-------------------------------------|-------------------------------------|

E|-------------------------------------|---------------|
B|-------------------------------------|---------------|
G|-4----6----6----6-----6----6----6----|--------%------|
D|-4----6----6----6-----6----6----6----|-4------%------|
A|-2----4----4----4-----4----4----4----|-2-------------|
E|-------------------------------------|---------------|
Metallica - Commando
Metallica - Commando.gp4