Metallica - Commando (2)

Metallica - Commando (2)

Metallica



Title: Commando
Album: St. Anger (Single)
Artist: Metallica
Author: 

Track 1: Guitar 1
E|---------|-------------------------------------|-------------------------------------|
B|---------|-------------------------------------|-------------------------------------|
G|-%-------|-6-----6----6----6----6----6----6----|-9-----9----9----9----9----9----9----|
D|-%-------|-6-----6----6----6----6----6----6----|-9-----9----9----9----9----9----9----|
A|---------|-4-----4----4----4----4----4----4----|-7-----7----7----7----7----7----7----|
E|---------|-------------------------------------|-------------------------------------|

E|-------------------------------------|-------------------------------------|---------------------------------|
B|-------------------------------------|-------------------------------------|---------------------------------|
G|-2-----2----2----2----2----2----2----|-4-----4----4----4----4----4----4----|-4-----6----6-----6----6----6----|
D|-2-----2----2----2----2----2----2----|-4-----4----4----4----4----4----4----|-4-----6----6-----6----6----6----|
A|-0-----0----0----0----0----0----0----|-2-----2----2----2----2----2----2----|-2-----4----4-----4----4----4----|
E|-------------------------------------|-------------------------------------|---------------------------------|

E|---------------------------------|---------------------------------|---------------------------------|
B|---------------------------------|---------------------------------|---------------------------------|
G|-4-----6----6-----6----6----6----|-4-----6----6-----6----6----6----|-4-----6----6-----6----6----6----|
D|-4-----6----6-----6----6----6----|-4-----6----6-----6----6----6----|-4-----6----6-----6----6----6----|
A|-2-----4----4-----4----4----4----|-2-----4----4-----4----4----4----|-2-----4----4-----4----4----4----|
E|---------------------------------|---------------------------------|---------------------------------|

E|---------------------------------|---------------------------------|-------------------------------------|
B|---------------------------------|---------------------------------|-------------------------------------|
G|-9-----11---11----11---11---11---|-9-----11---11----11---11---11---|-6-----6----6----6----6----6----6----|
D|-9-----11---11----11---11---11---|-9-----11---11----11---11---11---|-6-----6----6----6----6----6----6----|
A|-7-----9----9-----9----9----9----|-7-----9----9-----9----9----9----|-4-----4----4----4----4----4----4----|
E|---------------------------------|---------------------------------|-------------------------------------|

E|-------------------------------------|-------------------------------------|-------------------------------------|
B|-------------------------------------|-------------------------------------|-------------------------------------|
G|-9-----9----9----9----9----9----9----|-2-----2----2----2----2----2----2----|-4-----4----4----4----4----4----4----|
D|-9-----9----9----9----9----9----9----|-2-----2----2----2----2----2----2----|-4-----4----4----4----4----4----4----|
A|-7-----7----7----7----7----7----7----|-0-----0----0----0----0----0----0----|-2-----2----2----2----2----2----2----|
E|-------------------------------------|-------------------------------------|-------------------------------------|

E|---------------------------------|---------------------------------|---------------------------------|
B|---------------------------------|---------------------------------|---------------------------------|
G|-9-----11---11----11---11---11---|-9-----11---11----11---11---11---|-4-----6----6-----6----6----6----|
D|-9-----11---11----11---11---11---|-9-----11---11----11---11---11---|-4-----6----6-----6----6----6----|
A|-7-----9----9-----9----9----9----|-7-----9----9-----9----9----9----|-2-----4----4-----4----4----4----|
E|---------------------------------|---------------------------------|---------------------------------|

E|---------------------------------|---------------------------------|---------------------------------|
B|---------------------------------|---------------------------------|---------------------------------|
G|-4-----6----6-----6----6----6----|-4-----6----6-----6----6----6----|-4-----6----6-----6----6----6----|
D|-4-----6----6-----6----6----6----|-4-----6----6-----6----6----6----|-4-----6----6-----6----6----6----|
A|-2-----4----4-----4----4----4----|-2-----4----4-----4----4----4----|-2-----4----4-----4----4----4----|
E|---------------------------------|---------------------------------|---------------------------------|

E|---------------------------------|---------------------------------|-------------------------------------|
B|---------------------------------|---------------------------------|-------------------------------------|
G|-9-----11---11----11---11---11---|-9-----11---11----11---11---11---|-6-----6----6----6----6----6----6----|
D|-9-----11---11----11---11---11---|-9-----11---11----11---11---11---|-6-----6----6----6----6----6----6----|
A|-7-----9----9-----9----9----9----|-7-----9----9-----9----9----9----|-4-----4----4----4----4----4----4----|
E|---------------------------------|---------------------------------|-------------------------------------|

E|-------------------------------------|-------------------------------------|-------------------------------------|
B|-------------------------------------|-------------------------------------|-------------------------------------|
G|-9-----9----9----9----9----9----9----|-2-----2----2----2----2----2----2----|-4-----4----4----4----4----4----4----|
D|-9-----9----9----9----9----9----9----|-2-----2----2----2----2----2----2----|-4-----4----4----4----4----4----4----|
A|-7-----7----7----7----7----7----7----|-0-----0----0----0----0----0----0----|-2-----2----2----2----2----2----2----|
E|-------------------------------------|-------------------------------------|-------------------------------------|

E|---------------------------------|---------------------------------|---------------------------------|
B|---------------------------------|---------------------------------|---------------------------------|
G|-9-----11---11----11---11---11---|-9-----11---11----11---11---11---|-4-----6----6-----6----6----6----|
D|-9-----11---11----11---11---11---|-9-----11---11----11---11---11---|-4-----6----6-----6----6----6----|
A|-7-----9----9-----9----9----9----|-7-----9----9-----9----9----9----|-2-----4----4-----4----4----4----|
E|---------------------------------|---------------------------------|---------------------------------|

E|---------------------------------|---------------------------------|---------------------------------|
B|---------------------------------|---------------------------------|---------------------------------|
G|-4-----6----6-----6----6----6----|-4-----6----6-----6----6----6----|-4-----6----6-----6----6----6----|
D|-4-----6----6-----6----6----6----|-4-----6----6-----6----6----6----|-4-----6----6-----6----6----6----|
A|-2-----4----4-----4----4----4----|-2-----4----4-----4----4----4----|-2-----4----4-----4----4----4----|
E|---------------------------------|---------------------------------|---------------------------------|

E|---------|
B|---------|
G|-4-------|
D|-4-------|
A|-2-------|
E|---------|
Metallica - Commando (2)
Metallica - Commando (2).gp4