Metallica - Crash Course In Brain Surgery (2)

Metallica - Crash Course In Brain Surgery (2)

Metallica



Title: Crash Course In Brain Surgery
Album: Garage Inc*
Artist: Metallica
Author: Edwin Heeres

Track 1: Guitar 1
D|---------|---------|---------|---------|---------|-----------------------------------------|
A|---------|---------|---------|---------|---------|-----------------------------------------|
F|-%-------|-%-------|-%-------|-%-------|-%-------|-----------------------------------------|
C|-%-------|-%-------|-%-------|-%-------|-%-------|-------------------------------0----1----|
G|---------|---------|---------|---------|---------|----------------0----1----2--------------|
D|---------|---------|---------|---------|---------|-0----1----2-----------------------------|

D|-------------------------------------|-----------------------------------------|-------------------------------------|
A|-------------------------------------|-----------------------------------------|-------------------------------------|
F|-------------------------------------|-----------------------------------------|-------------------------------------|
C|-2-----------------------------------|-------------------------------0----1----|-2-----------------------------4-----|
G|------0----1----2----0----1----2-----|----------------0----1----2--------------|------0----1----2----0----1----2-----|
D|-------------------------------------|-0----1----2-----------------------------|-------------------------------------|

D|--------|-----------------------------------------|-----------------------------------------|
A|--------|-----------------------------------------|-----------------------------------------|
F|-%------|---------------------%---------%---------|---------------------%---------%---------|
C|-%------|---------------------%---------%---------|---------------------%---------%---------|
G|--------|-4--------------4---------4---------4----|-4--------------4---------4---------4----|
D|--------|-0----2----2----2---------2---------2----|-0----2----2----2---------2---------2----|

D|-----------------------------------------|-----------------------------------------|
A|-----------------------------------------|-----------------------------------------|
F|---------------------%---------%---------|---------------------%---------%---------|
C|---------------------%---------%---------|---------------------%---------%---------|
G|-4--------------4---------4---------4----|-4--------------4---------4---------4----|
D|-0----2----2----2---------2---------2----|-0----2----2----2---------2---------2----|

D|-------------------------|-------------------------|-----------------------------------------|
A|-------------------------|-------------------------|-----------------------------------------|
F|-------------------------|-------------------------|---------------------%---------%---------|
C|-4----2------------------|-------------------------|---------------------%---------%---------|
G|-------------4----2------|------------------3------|-4--------------4---------4---------4----|
D|-------------------------|-5----2------0----1------|-0----2----2----2---------2---------2----|

D|-----------------------------------------|-----------------------------------------|
A|-----------------------------------------|-----------------------------------------|
F|---------------------%---------%---------|---------------------%---------%---------|
C|---------------------%---------%---------|---------------------%---------%---------|
G|-4--------------4---------4---------4----|-4--------------4---------4---------4----|
D|-0----2----2----2---------2---------2----|-0----2----2----2---------2---------2----|

D|-----------------------------------------|-------------------------|-------------|
A|-----------------------------------------|-------------------------|-------------|
F|---------------------%---------%---------|-------------------------|-------------|
C|---------------------%---------%---------|-4----2------------------|-------------|
G|-4--------------4---------4---------4----|-------------4----2------|-------------|
D|-0----2----2----2---------2---------2----|-------------------------|-5----2------|

D|---------|---------------------------|-----------------------------------------|-----------------------------------------|
A|---------|---------------------------|-----------------------------------------|-----------------------------------------|
F|---------|---------------------------|---------------------%---------%---------|---------------------%---------%---------|
C|---------|---------------------------|---------------------%---------%---------|---------------------%---------%---------|
G|-2-------|-3-----------12--12--------|-4--------------4---------4---------4----|-4--------------4---------4---------4----|
D|-0-------|-1------X------------13----|-0----2----2----2---------2---------2----|-0----2----2----2---------2---------2----|

D|-----------------------------------------|-----------------------------------------|
A|-----------------------------------------|-----------------------------------------|
F|---------------------%---------%---------|---------------------%---------%---------|
C|---------------------%---------%---------|---------------------%---------%---------|
G|-4--------------4---------4---------4----|-4--------------4---------4---------4----|
D|-0----2----2----2---------2---------2----|-0----2----2----2---------2---------2----|

D|-----------------------------------------|-----------------------------------------|
A|-----------------------------------------|-----------------------------------------|
F|---------------------%---------%---------|---------------------%---------%---------|
C|---------------------%---------%---------|---------------------%---------%---------|
G|-4--------------4---------4---------4----|-4--------------4---------4---------4----|
D|-0----2----2----2---------2---------2----|-0----2----2----2---------2---------2----|

D|-----------------------------------------|-----------------------------------------|
A|-----------------------------------------|-----------------------------------------|
F|---------------------%---------%---------|---------------------%---------%---------|
C|---------------------%---------%---------|---------------------%---------%---------|
G|-4--------------4---------4---------4----|-4--------------4---------4---------4----|
D|-0----2----2----2---------2---------2----|-0----2----2----2---------2---------2----|

D|-----------------------------------------|-----------------------------------------|
A|-----------------------------------------|-----------------------------------------|
F|---------------------%---------%---------|---------------------%---------%---------|
C|---------------------%---------%---------|---------------------%---------%---------|
G|-4--------------4---------4---------4----|-4--------------4---------4---------4----|
D|-0----2----2----2---------2---------2----|-0----2----2----2---------2---------2----|

D|-----------------------------------------|-----------------------------------------|
A|-----------------------------------------|-----------------------------------------|
F|---------------------%---------%---------|---------------------%---------%---------|
C|---------------------%---------%---------|---------------------%---------%---------|
G|-4--------------4---------4---------4----|-4--------------4---------4---------4----|
D|-0----2----2----2---------2---------2----|-0----2----2----2---------2---------2----|

D|-----------------------------------------|-----------------------------------------|
A|-----------------------------------------|-----------------------------------------|
F|---------------------%---------%---------|---------------------%---------%---------|
C|---------------------%---------%---------|---------------------%---------%---------|
G|-4--------------4---------4---------4----|-4--------------4---------4---------4----|
D|-0----2----2----2---------2---------2----|-0----2----2----2---------2---------2----|

D|-----------------------------------------|-----------------------------------------|
A|-----------------------------------------|-----------------------------------------|
F|---------------------%---------%---------|---------------------%---------%---------|
C|---------------------%---------%---------|---------------------%---------%---------|
G|-4--------------4---------4---------4----|-4--------------4---------4---------4----|
D|-0----2----2----2---------2---------2----|-0----2----2----2---------2---------2----|

D|-----------------------------------------|-----------------------------------------|
A|-----------------------------------------|-----------------------------------------|
F|---------------------%---------%---------|---------------------%---------%---------|
C|---------------------%---------%---------|---------------------%---------%---------|
G|----------------7---------7---------7----|----------------7---------7---------7----|
D|-3----5----5----5---------5---------5----|-3----5----5----5---------5---------5----|

D|-----------------------------------------|--------------------|-------------------------------------------|
A|-----------------------------------------|--------------------|-------------------------------------------|
F|---------------------%---------%---------|--------------------|------%---------%--------------------------|
C|---------------------%---------%---------|--------------------|------%---------%--------------------------|
G|----------------7---------7---------7----|-5----2------2------|-------------------------------------------|
D|-3----5----5----5---------5---------5----|-3----0------0------|-12--------12--------12--12--12--12--12----|

D|-----------------------------------------|-----------------------------------------|
A|-----------------------------------------|-----------------------------------------|
F|---------------------%---------%---------|---------------------%---------%---------|
C|---------------------%---------%---------|---------------------%---------%---------|
G|-4--------------4---------4---------4----|-4--------------4---------4---------4----|
D|-0----2----2----2---------2---------2----|-0----2----2----2---------2---------2----|

D|-----------------------------------------|-----------------------------------------|
A|-----------------------------------------|-----------------------------------------|
F|---------------------%---------%---------|---------------------%---------%---------|
C|---------------------%---------%---------|---------------------%---------%---------|
G|-4--------------4---------4---------4----|-4--------------4---------4---------4----|
D|-0----2----2----2---------2---------2----|-0----2----2----2---------2---------2----|

D|-----------------------------------------|-----------------------------------------|
A|-----------------------------------------|-----------------------------------------|
F|---------------------%---------%---------|---------------------%---------%---------|
C|---------------------%---------%---------|---------------------%---------%---------|
G|-4--------------4---------4---------4----|-4--------------4---------4---------4----|
D|-0----2----2----2---------2---------2----|-0----2----2----2---------2---------2----|

D|-----------------------------------------|-----------------------------------------|
A|-----------------------------------------|-----------------------------------------|
F|---------------------%---------%---------|---------------------%---------%---------|
C|---------------------%---------%---------|---------------------%---------%---------|
G|-4--------------4---------4---------4----|-4--------------4---------4---------4----|
D|-0----2----2----2---------2---------2----|-0----2----2----2---------2---------2----|

D|-----------------------------------------|-----------------------------------------|
A|-----------------------------------------|-----------------------------------------|
F|---------------------%---------%---------|---------------------%---------%---------|
C|---------------------%---------%---------|---------------------%---------%---------|
G|-4--------------4---------4---------4----|-4--------------4---------4---------4----|
D|-0----2----2----2---------2---------2----|-0----2----2----2---------2---------2----|

D|-----------------------------------------|-----------------------------------------|
A|-----------------------------------------|-----------------------------------------|
F|---------------------%---------%---------|---------------------%---------%---------|
C|---------------------%---------%---------|---------------------%---------%---------|
G|-4--------------4---------4---------4----|-4--------------4---------4---------4----|
D|-0----2----2----2---------2---------2----|-0----2----2----2---------2---------2----|

D|-----------------------------------------|-----------------------------------------|
A|-----------------------------------------|-----------------------------------------|
F|---------------------%---------%---------|---------------------%---------%---------|
C|---------------------%---------%---------|---------------------%---------%---------|
G|-4--------------4---------4---------4----|-4--------------4---------4---------4----|
D|-0----2----2----2---------2---------2----|-0----2----2----2---------2---------2----|

D|-----------------------------------------|-----------------------------------------|
A|-----------------------------------------|-----------------------------------------|
F|---------------------%---------%---------|---------------------%---------%---------|
C|---------------------%---------%---------|---------------------%---------%---------|
G|-4--------------4---------4---------4----|-4--------------4---------4---------4----|
D|-0----2----2----2---------2---------2----|-0----2----2----2---------2---------2----|

D|-----------------------------------------|-----------------------------------------|
A|-----------------------------------------|-----------------------------------------|
F|---------------------%---------%---------|---------------------%---------%---------|
C|---------------------%---------%---------|---------------------%---------%---------|
G|----------------7---------7---------7----|----------------7---------7---------7----|
D|-3----5----5----5---------5---------5----|-3----5----5----5---------5---------5----|

D|-----------------------------------------|--------------------|-------------------------------------------|
A|-----------------------------------------|--------------------|-------------------------------------------|
F|---------------------%---------%---------|--------------------|------%---------%--------------------------|
C|---------------------%---------%---------|--------------------|------%---------%--------------------------|
G|----------------7---------7---------7----|-5----2------2------|-------------------------------------------|
D|-3----5----5----5---------5---------5----|-3----0------0------|-12--------12--------12--12--12--12--12----|

D|-----------------------------------------|-----------------------------------------|
A|-----------------------------------------|-----------------------------------------|
F|---------------------%---------%---------|---------------------%---------%---------|
C|---------------------%---------%---------|---------------------%---------%---------|
G|-4--------------4---------4---------4----|-4--------------4---------4---------4----|
D|-0----2----2----2---------2---------2----|-0----2----2----2---------2---------2----|

D|-----------------------------------------|-----------------------------------------|
A|-----------------------------------------|-----------------------------------------|
F|---------------------%---------%---------|---------------------%---------%---------|
C|---------------------%---------%---------|---------------------%---------%---------|
G|-4--------------4---------4---------4----|-4--------------4---------4---------4----|
D|-0----2----2----2---------2---------2----|-0----2----2----2---------2---------2----|

D|-------------------------|-------------------------|-----------------------------------------|
A|-------------------------|-------------------------|-----------------------------------------|
F|-------------------------|-------------------------|---------------------%---------%---------|
C|-4----2------------------|-------------------------|---------------------%---------%---------|
G|-------------4----2------|------------------3------|-4--------------4---------4---------4----|
D|-------------------------|-5----2------0----1------|-0----2----2----2---------2---------2----|

D|-----------------------------------------|-----------------------------------------|
A|-----------------------------------------|-----------------------------------------|
F|---------------------%---------%---------|---------------------%---------%---------|
C|---------------------%---------%---------|---------------------%---------%---------|
G|-4--------------4---------4---------4----|-4--------------4---------4---------4----|
D|-0----2----2----2---------2---------2----|-0----2----2----2---------2---------2----|

D|-----------------------------------------|-------------------------|-------------|
A|-----------------------------------------|-------------------------|-------------|
F|---------------------%---------%---------|-------------------------|-------------|
C|---------------------%---------%---------|-4----2------------------|-------------|
G|-4--------------4---------4---------4----|-------------4----2------|-------------|
D|-0----2----2----2---------2---------2----|-------------------------|-5----2------|

D|---------|---------|--------------------|---------|--------------------|---------|
A|---------|---------|--------------------|---------|--------------------|---------|
F|---------|---------|-------%-----%------|-%-------|-------%-----%------|-%-------|
C|---------|---------|-------%-----%------|-%-------|-------%-----%------|-%-------|
G|-2-------|-3-------|-4------------------|---------|-4------------------|---------|
D|-0-------|-1-------|-2------------------|---------|-2------------------|---------|

D|--------------------|---------|------------------------|---------|-----------------------------------------|
A|--------------------|---------|------------------------|---------|-----------------------------------------|
F|-------------%------|-%-------|-----------%-----%------|---------|---------------------%---------%---------|
C|-------------%------|-%-------|-----------%-----%------|---------|---------------------%---------%---------|
G|-3-----4------------|---------|-5----4-----------------|-4-------|----------------7---------7---------7----|
D|-1-----2------------|---------|-3----2-----------------|-2-------|-3----5----5----5---------5---------5----|

D|-----------------------------------------|-----------------------------------------|
A|-----------------------------------------|-----------------------------------------|
F|---------------------%---------%---------|---------------------%---------%---------|
C|---------------------%---------%---------|---------------------%---------%---------|
G|----------------7---------7---------7----|----------------7---------7---------7----|
D|-3----5----5----5---------5---------5----|-3----5----5----5---------5---------5----|

D|-------------------------------------|-----------------------------------------|-----------------------------------------|
A|-------------------------------------|-----------------------------------------|-----------------------------------------|
F|-------------------------------------|---------------------%---------%---------|---------------------%---------%---------|
C|-------------------------------5-----|---------------------%---------%---------|---------------------%---------%---------|
G|-----------7----7----7----7----3-----|----------------7---------7---------7----|----------------7---------7---------7----|
D|-3----5----5----5----5----5----------|-3----5----5----5---------5---------5----|-3----5----5----5---------5---------5----|

D|-----------------------------------------|-----------------------------------------|
A|-----------------------------------------|-----------------------------------------|
F|---------------------%---------%---------|-----------------------------------------|
C|---------------------%---------%---------|-----------------------------------------|
G|----------------7---------7---------7----|-----------------------------------------|
D|-3----5----5----5---------5---------5----|-3----5----5----5----5----5----5----5----|

D|-------------------------|-------------------------|-----------------------------------------|
A|-------------------------|-------------------------|-----------------------------------------|
F|-------------------------|-------------------------|---------------------%---------%---------|
C|-7----5------------------|-------------------------|---------------------%---------%---------|
G|-------------7----5------|-3----------------6------|-4--------------4---------4---------4----|
D|-------------------------|------5------3----4------|-0----2----2----2---------2---------2----|

D|-----------------------------------------|-----------------------------------------|
A|-----------------------------------------|-----------------------------------------|
F|---------------------%---------%---------|---------------------%---------%---------|
C|---------------------%---------%---------|---------------------%---------%---------|
G|-4--------------4---------4---------4----|-4--------------4---------4---------4----|
D|-0----2----2----2---------2---------2----|-0----2----2----2---------2---------2----|

D|-----------------------------------------|-----------------------------------------|
A|-----------------------------------------|-----------------------------------------|
F|-----------------------------------------|---------------------%---------%---------|
C|-----------------------------------------|---------------------%---------%---------|
G|-4---------4----4----4----4----4----4----|-4--------------4---------4---------4----|
D|-0----2----2----2----2----2----2----2----|-0----2----2----2---------2---------2----|

D|-----------------------------------------|-----------------------------------------|
A|-----------------------------------------|-----------------------------------------|
F|---------------------%---------%---------|---------------------%---------%---------|
C|---------------------%---------%---------|---------------------%---------%---------|
G|-4--------------4---------4---------4----|-4--------------4---------4---------4----|
D|-0----2----2----2---------2---------2----|-0----2----2----2---------2---------2----|

D|-----------------------------------------|-------------------------|-------------|
A|-----------------------------------------|-------------------------|-------------|
F|---------------------%---------%---------|-------------------------|-------------|
C|---------------------%---------%---------|-4----2------------------|-------------|
G|-4--------------4---------4---------4----|-------------4----2------|-------------|
D|-0----2----2----2---------2---------2----|-------------------------|-5----2------|

D|---------|--------|--------------------|---------|---------|---------|---------|---------|
A|---------|--------|--------------------|---------|---------|---------|---------|---------|
F|---------|--------|-------%-----%------|-%-------|-%-------|-%-------|-%-------|-%-------|
C|---------|--------|-------%-----%------|-%-------|-%-------|-%-------|-%-------|-%-------|
G|-2-------|-2------|-2------------------|---------|---------|---------|---------|---------|
D|-0-------|-0------|-0------------------|---------|---------|---------|---------|---------|

D|---------|---------|---------------------------------|---------------------------------|
A|---------|---------|---------------------------------|---------------------------------|
F|-%-------|-%-------|---------------------------------|---------------------------------|
C|-%-------|-%-------|-----------7---------------------|-----------7---------------------|
G|---------|---------|-7----9--------------------7-----|-7----9--------------------7-----|
D|---------|---------|-----------------7----9----------|-----------------7----9----------|

D|-----------------------------------------|-----------------------------------------|
A|-----------------------------------------|-----------------------------------------|
F|---------------------%---------%---------|---------------------%---------%---------|
C|---------------------%---------%---------|---------------------%---------%---------|
G|-4--------------4---------4---------4----|-4--------------4---------4---------4----|
D|-0----2----2----2---------2---------2----|-0----2----2----2---------2---------2----|

D|-----------------------------------------|-----------------------------------------|
A|-----------------------------------------|-----------------------------------------|
F|---------------------%---------%---------|---------------------%---------%---------|
C|---------------------%---------%---------|---------------------%---------%---------|
G|-4--------------4---------4---------4----|-4--------------4---------4---------4----|
D|-0----2----2----2---------2---------2----|-0----2----2----2---------2---------2----|

D|-------------------------|-------------------------|-----------------------------------------|
A|-------------------------|-------------------------|-----------------------------------------|
F|-------------------------|-------------------------|---------------------%---------%---------|
C|-4----2------------------|-------------------------|---------------------%---------%---------|
G|-------------4----2------|------------------3------|-4--------------4---------4---------4----|
D|-------------------------|-5----2------0----1------|-0----2----2----2---------2---------2----|

D|-----------------------------------------|-----------------------------------------|
A|-----------------------------------------|-----------------------------------------|
F|---------------------%---------%---------|---------------------%---------%---------|
C|---------------------%---------%---------|---------------------%---------%---------|
G|-4--------------4---------4---------4----|-4--------------4---------4---------4----|
D|-0----2----2----2---------2---------2----|-0----2----2----2---------2---------2----|

D|-----------------------------------------|-------------------------|-------------|
A|-----------------------------------------|-------------------------|-------------|
F|---------------------%---------%---------|-------------------------|-------------|
C|---------------------%---------%---------|-4----2------------------|-------------|
G|-4--------------4---------4---------4----|-------------4----2------|-------------|
D|-0----2----2----2---------2---------2----|-------------------------|-5----2------|

D|---------|---------|------------------------|
A|---------|---------|------------------------|
F|---------|---------|-----------------%------|
C|---------|---------|-4----7----7-----%------|
G|-2-------|-3-------|-4----7----7------------|
D|-0-------|-1-------|-2----5----5------------|
Metallica - Crash Course In Brain Surgery (2)
Metallica - Crash Course In Brain Surgery (2).gp4