Metallica - Creeping Death (3)

Metallica



Title: Creeping Death
Album: Ride The Lightning
Artist: 
Author: Metallica

Track 1: James Hetfield (Guitar)
E|-------------------------------------|---------|-----------------------------------------|
B|-------------------------------------|---------|-----------------------------------------|
G|--------------------------%----9-----|-9-------|--------------------------%----9----7----|
D|--------------------------%----9-----|-9-------|--------------------------%----9----7----|
A|-------------------------------7-----|-7-------|-------------------------------7----5----|
E|-0----0----0----0----0---------------|---------|-0----0----0----0----0-------------------|

E|---------|-------------------------------------|---------|-----------------------------------------|
B|---------|-------------------------------------|---------|-----------------------------------------|
G|-7-------|--------------------------%----9-----|-9-------|--------------------------%----9----7----|
D|-7-------|--------------------------%----9-----|-9-------|--------------------------%----9----7----|
A|-5-------|-------------------------------7-----|-7-------|-------------------------------7----5----|
E|---------|-0----0----0----0----0---------------|---------|-0----0----0----0----0-------------------|

E|---------|-------------------------------------|------------------------|-----------------------------------------|
B|---------|-------------------------------------|------------------------|-----------------------------------------|
G|-7-------|--------------------------%----9-----|-9------9----%-----%----|--------------------------%----9----7----|
D|-7-------|--------------------------%----9-----|-9------9----%-----%----|--------------------------%----9----7----|
A|-5-------|-------------------------------7-----|-7------7---------------|-------------------------------7----5----|
E|---------|-0----0----0----0----0---------------|------------------------|-0----0----0----0----0-------------------|

E|------------------------|-------------------------------------|------------------------|
B|------------------------|-------------------------------------|------------------------|
G|-7------7----%-----%----|--------------------------%----9-----|-9------9----%-----%----|
D|-7------7----%-----%----|--------------------------%----9-----|-9------9----%-----%----|
A|-5------5---------------|-------------------------------7-----|-7------7---------------|
E|------------------------|-0----0----0----0----0---------------|------------------------|

E|-----------------------------------------|------------------------|-------------------------|
B|-----------------------------------------|------------------------|-------------------------|
G|--------------------------%----9----7----|-7------7----%-----%----|-%-----------------------|
D|--------------------------%----9----7----|-7------7----%-----%----|-%-----------------------|
A|-------------------------------7----5----|-5------5---------------|-------7-----5-----5-----|
E|-0----0----0----0----0-------------------|------------------------|-------5-----3-----2-----|

E|-----------------------------------------|-----------------------------------------------|
B|-----------------------------------------|-----------------------------------------------|
G|-----------------------------------------|-----------------------------------------------|
D|-----------2--------------2---------2----|-----------2-----------------------------------|
A|-----------2--------------2---------2----|-----------2---------2----3----2---3---2---0---|
E|-0----0---------0----0---------0---------|-0----0---------0------------------------------|

E|-----------------------------------------|-----------------------------------------------|
B|-----------------------------------------|-----------------------------------------------|
G|-----------------------------------------|-----------------------------------------------|
D|-----------2--------------2---------2----|-----------2-----------------------------------|
A|-----------2--------------2---------2----|-----------2---------2----3----2---3---2---0---|
E|-0----0---------0----0---------0---------|-0----0---------0------------------------------|

E|-----------------------------------------|-----------------------------------------------|
B|-----------------------------------------|-----------------------------------------------|
G|-----------------------------------------|-----------------------------------------------|
D|-----------2--------------2---------2----|-----------2-----------------------------------|
A|-----------2--------------2---------2----|-----------2---------2----3----2---3---2---0---|
E|-0----0---------0----0---------0---------|-0----0---------0------------------------------|

E|-----------------------------------------|-----------------------------------------------|
B|-----------------------------------------|-----------------------------------------------|
G|-----------------------------------------|-----------------------------------------------|
D|-----------2--------------2---------2----|-----------2-----------------------------------|
A|-----------2--------------2---------2----|-----------2---------2----3----2---3---2---0---|
E|-0----0---------0----0---------0---------|-0----0---------0------------------------------|

E|-----------------------------------------|-----------------------------------------------|
B|-----------------------------------------|-----------------------------------------------|
G|-----------------------------------------|-----------------------------------------------|
D|-----------2--------------2---------2----|-----------2-----------------------------------|
A|-----------2--------------2---------2----|-----------2---------2----3----2---3---2---0---|
E|-0----0---------0----0---------0---------|-0----0---------0------------------------------|

E|-----------------------------------------|-----------------------------------------------|
B|-----------------------------------------|-----------------------------------------------|
G|-----------------------------------------|-----------------------------------------------|
D|-----------2--------------2---------2----|-----------2-----------------------------------|
A|-----------2--------------2---------2----|-----------2---------2----3----2---3---2---0---|
E|-0----0---------0----0---------0---------|-0----0---------0------------------------------|

E|-----------------------------------------|-----------------------------------------------|
B|-----------------------------------------|-----------------------------------------------|
G|-----------------------------------------|-----------------------------------------------|
D|-----------2--------------2---------2----|-----------2-----------------------------------|
A|-----------2--------------2---------2----|-----------2---------2----3----2---3---2---0---|
E|-0----0---------0----0---------0---------|-0----0---------0------------------------------|

E|-----------------------------------------|-----------------------------------------------|
B|-----------------------------------------|-----------------------------------------------|
G|-----------------------------------------|-----------------------------------------------|
D|-----------2--------------2---------2----|-----------2-----------------------------------|
A|-----------2--------------2---------2----|-----------2---------2----3----2---3---2---0---|
E|-0----0---------0----0---------0---------|-0----0---------0------------------------------|

E|---------------------------------|-----------------------------------------|---------------------------------|
B|---------------------------------|-----------------------------------------|---------------------------------|
G|---------------------------------|-----------------------------------------|---------------------------------|
D|---------------------------------|-----------------------------------------|---------------------------------|
A|-----------5---------------5-----|-----------------------------------------|-----------5---------------5-----|
E|-0----0----3-----0----0----3-----|-0----0----2----2----2----2----2----2----|-0----0----3-----0----0----3-----|

E|-----------------------------------------|---------------------------------|-----------------------------------------|
B|-----------------------------------------|---------------------------------|-----------------------------------------|
G|-----------------------------------------|---------------------------------|-----------------------------------------|
D|-----------------------------------------|---------------------------------|-----------------------------------------|
A|-----------------------------------------|-----------5---------------5-----|-----------------------------------------|
E|-0----0----2----2----2----2----2----2----|-0----0----3-----0----0----3-----|-0----0----2----2----2----2----2----2----|

E|---------------------------------|-----------------------------------------|-----------------------------------------|
B|---------------------------------|-----------------------------------------|-----------------------------------------|
G|---------------------------------|-----------------------------------------|-----------------------------------------|
D|---------------------------------|-----------------------------------------|-----------2--------------2---------2----|
A|-----------5---------------5-----|-----------------------------------------|-----------2--------------2---------2----|
E|-0----0----3-----0----0----3-----|-0----0----2----2----2----2----2----2----|-0----0---------0----0---------0---------|

E|-----------------------------------------------|-----------------------------------------|
B|-----------------------------------------------|-----------------------------------------|
G|-----------------------------------------------|-----------------------------------------|
D|-----------2-----------------------------------|-----------2--------------2---------2----|
A|-----------2---------2----3----2---3---2---0---|-----------2--------------2---------2----|
E|-0----0---------0------------------------------|-0----0---------0----0---------0---------|

E|-----------------------------------------------|---------|---------|---------|-------------------------|
B|-----------------------------------------------|---------|---------|---------|-------------------------|
G|-----------------------------------------------|---------|---------|---------|-------4-----6-----------|
D|-----------2-----------------------------------|-2-------|-2-------|-2-------|-2-----4-----6-----4-----|
A|-----------2---------2----3----2---3---2---0---|-2-------|-2-------|-2-------|-2-----2-----4-----4-----|
E|-0----0---------0------------------------------|-0-------|-0-------|-0-------|-0-----------------2-----|

E|-----------------------------------------|-----------------------------------------------|
B|-----------------------------------------|-----------------------------------------------|
G|-----------------------------------------|-----------------------------------------------|
D|-----------2--------------2---------2----|-----------2-----------------------------------|
A|-----------2--------------2---------2----|-----------2---------2----3----2---3---2---0---|
E|-0----0---------0----0---------0---------|-0----0---------0------------------------------|

E|-----------------------------------------|-----------------------------------------------|
B|-----------------------------------------|-----------------------------------------------|
G|-----------------------------------------|-----------------------------------------------|
D|-----------2--------------2---------2----|-----------2-----------------------------------|
A|-----------2--------------2---------2----|-----------2---------2----3----2---3---2---0---|
E|-0----0---------0----0---------0---------|-0----0---------0------------------------------|

E|-----------------------------------------|-----------------------------------------------|
B|-----------------------------------------|-----------------------------------------------|
G|-----------------------------------------|-----------------------------------------------|
D|-----------2--------------2---------2----|-----------2-----------------------------------|
A|-----------2--------------2---------2----|-----------2---------2----3----2---3---2---0---|
E|-0----0---------0----0---------0---------|-0----0---------0------------------------------|

E|-----------------------------------------|-----------------------------------------------|
B|-----------------------------------------|-----------------------------------------------|
G|-----------------------------------------|-----------------------------------------------|
D|-----------2--------------2---------2----|-----------2-----------------------------------|
A|-----------2--------------2---------2----|-----------2---------2----3----2---3---2---0---|
E|-0----0---------0----0---------0---------|-0----0---------0------------------------------|

E|-----------------------------------------|-----------------------------------------------|
B|-----------------------------------------|-----------------------------------------------|
G|-----------------------------------------|-----------------------------------------------|
D|-----------2--------------2---------2----|-----------2-----------------------------------|
A|-----------2--------------2---------2----|-----------2---------2----3----2---3---2---0---|
E|-0----0---------0----0---------0---------|-0----0---------0------------------------------|

E|-----------------------------------------|-----------------------------------------------|
B|-----------------------------------------|-----------------------------------------------|
G|-----------------------------------------|-----------------------------------------------|
D|-----------2--------------2---------2----|-----------2-----------------------------------|
A|-----------2--------------2---------2----|-----------2---------2----3----2---3---2---0---|
E|-0----0---------0----0---------0---------|-0----0---------0------------------------------|

E|-----------------------------------------|-----------------------------------------------|
B|-----------------------------------------|-----------------------------------------------|
G|-----------------------------------------|-----------------------------------------------|
D|-----------2--------------2---------2----|-----------2-----------------------------------|
A|-----------2--------------2---------2----|-----------2---------2----3----2---3---2---0---|
E|-0----0---------0----0---------0---------|-0----0---------0------------------------------|

E|-----------------------------------------|-----------------------------------------------|
B|-----------------------------------------|-----------------------------------------------|
G|-----------------------------------------|-----------------------------------------------|
D|-----------2--------------2---------2----|-----------2-----------------------------------|
A|-----------2--------------2---------2----|-----------2---------2----3----2---3---2---0---|
E|-0----0---------0----0---------0---------|-0----0---------0------------------------------|

E|---------------------------------|-----------------------------------------|---------------------------------|
B|---------------------------------|-----------------------------------------|---------------------------------|
G|---------------------------------|-----------------------------------------|---------------------------------|
D|---------------------------------|-----------------------------------------|---------------------------------|
A|-----------5---------------5-----|-----------------------------------------|-----------5---------------5-----|
E|-0----0----3-----0----0----3-----|-0----0----2----2----2----2----2----2----|-0----0----3-----0----0----3-----|

E|-----------------------------------------|---------------------------------|-----------------------------------------|
B|-----------------------------------------|---------------------------------|-----------------------------------------|
G|-----------------------------------------|---------------------------------|-----------------------------------------|
D|-----------------------------------------|---------------------------------|-----------------------------------------|
A|-----------------------------------------|-----------5---------------5-----|-----------------------------------------|
E|-0----0----2----2----2----2----2----2----|-0----0----3-----0----0----3-----|-0----0----2----2----2----2----2----2----|

E|---------------------------------|-----------------------------------------|---------|
B|---------------------------------|-----------------------------------------|---------|
G|---------------------------------|-----------------------------------------|---------|
D|---------------------------------|-----------------------------------------|-2-------|
A|-----------5---------------5-----|-----------------------------------------|-2-------|
E|-0----0----3-----0----0----3-----|-0----0----2----2----2----2----2----2----|-0-------|

E|---------------------------------|---------|---------------|---------|---------------------------------|
B|---------------------------------|---------|---------------|---------|---------------------------------|
G|----------------------5-----7----|-7-------|-7------10-----|-9-------|-9--------------------5-----7----|
D|-2--------------------5-----7----|-7-------|-7------10-----|-9-------|-9--------------------5-----7----|
A|-2--------------------3-----5----|-5-------|-5------8------|-7-------|-7--------------------3-----5----|
E|-0-----0----0----0---------------|---------|---------------|---------|-------0----0----0---------------|

E|---------|---------------|---------|---------------------------------|---------|---------------|
B|---------|---------------|---------|---------------------------------|---------|---------------|
G|-7-------|-10-----12-----|-9-------|-9--------------------5-----7----|-7-------|-7------10-----|
D|-7-------|-10-----12-----|-9-------|-9--------------------5-----7----|-7-------|-7------10-----|
A|-5-------|-8------10-----|-7-------|-7--------------------3-----5----|-5-------|-5------8------|
E|---------|---------------|---------|-------0----0----0---------------|---------|---------------|

E|---------|---------------------------------|---------|-------------------------|-----------------------------------------|
B|---------|---------------------------------|---------|-------------------------|-----------------------------------------|
G|-9-------|-9--------------------5-----7----|-7-------|-7-----4-----6-----------|-----------------------------------------|
D|-9-------|-9--------------------5-----7----|-7-------|-7-----4-----6-----4-----|-----------2--------------2---------2----|
A|-7-------|-7--------------------3-----5----|-5-------|-5-----2-----4-----4-----|-----------2--------------2---------2----|
E|---------|-------0----0----0---------------|---------|-------------------2-----|-0----0---------0----0---------0---------|

E|-----------------------------------------------|-----------------------------------------|
B|-----------------------------------------------|-----------------------------------------|
G|-----------------------------------------------|-----------------------------------------|
D|-----------2-----------------------------------|-----------2--------------2---------2----|
A|-----------2---------2----3----2---3---2---0---|-----------2--------------2---------2----|
E|-0----0---------0------------------------------|-0----0---------0----0---------0---------|

E|-----------------------------------------------|---------|---------|---------|-------------------------|
B|-----------------------------------------------|---------|---------|---------|-------------------------|
G|-----------------------------------------------|---------|---------|---------|-------4-----6-----------|
D|-----------2-----------------------------------|-2-------|-2-------|-2-------|-2-----4-----6-----4-----|
A|-----------2---------2----3----2---3---2---0---|-2-------|-2-------|-2-------|-2-----2-----4-----4-----|
E|-0----0---------0------------------------------|-0-------|-0-------|-0-------|-0-----------------2-----|

E|-----------------------------------------|-----------------------------------------------|
B|-----------------------------------------|-----------------------------------------------|
G|-----------------------------------------|-----------------------------------------------|
D|-----------2--------------2---------2----|-----------2-----------------------------------|
A|-----------2--------------2---------2----|-----------2---------2----3----2---3---2---0---|
E|-0----0---------0----0---------0---------|-0----0---------0------------------------------|

E|-----------------------------------------|-----------------------------------------------|
B|-----------------------------------------|-----------------------------------------------|
G|-----------------------------------------|-----------------------------------------------|
D|-----------2--------------2---------2----|-----------2-----------------------------------|
A|-----------2--------------2---------2----|-----------2---------2----3----2---3---2---0---|
E|-0----0---------0----0---------0---------|-0----0---------0------------------------------|

E|-----------------------------------------|-----------------------------------------------|
B|-----------------------------------------|-----------------------------------------------|
G|-----------------------------------------|-----------------------------------------------|
D|-----------2--------------2---------2----|-----------2-----------------------------------|
A|-----------2--------------2---------2----|-----------2---------2----3----2---3---2---0---|
E|-0----0---------0----0---------0---------|-0----0---------0------------------------------|

E|-----------------------------------------|-----------------------------------------------|
B|-----------------------------------------|-----------------------------------------------|
G|-----------------------------------------|-----------------------------------------------|
D|-----------2--------------2---------2----|-----------2-----------------------------------|
A|-----------2--------------2---------2----|-----------2---------2----3----2---3---2---0---|
E|-0----0---------0----0---------0---------|-0----0---------0------------------------------|

E|-----------------------------------------|-----------------------------------------------|
B|-----------------------------------------|-----------------------------------------------|
G|-----------------------------------------|-----------------------------------------------|
D|-----------2--------------2---------2----|-----------2-----------------------------------|
A|-----------2--------------2---------2----|-----------2---------2----3----2---3---2---0---|
E|-0----0---------0----0---------0---------|-0----0---------0------------------------------|

E|-----------------------------------------|-----------------------------------------------|
B|-----------------------------------------|-----------------------------------------------|
G|-----------------------------------------|-----------------------------------------------|
D|-----------2--------------2---------2----|-----------2-----------------------------------|
A|-----------2--------------2---------2----|-----------2---------2----3----2---3---2---0---|
E|-0----0---------0----0---------0---------|-0----0---------0------------------------------|

E|-----------------------------------------|-----------------------------------------------|
B|-----------------------------------------|-----------------------------------------------|
G|-----------------------------------------|-----------------------------------------------|
D|-----------2--------------2---------2----|-----------2-----------------------------------|
A|-----------2--------------2---------2----|-----------2---------2----3----2---3---2---0---|
E|-0----0---------0----0---------0---------|-0----0---------0------------------------------|

E|-----------------------------------------|-----------------------------------------------|
B|-----------------------------------------|-----------------------------------------------|
G|-----------------------------------------|-----------------------------------------------|
D|-----------2--------------2---------2----|-----------2-----------------------------------|
A|-----------2--------------2---------2----|-----------2---------2----3----2---3---2---0---|
E|-0----0---------0----0---------0---------|-0----0---------0------------------------------|

E|---------------------------------|-----------------------------------------|---------------------------------|
B|---------------------------------|-----------------------------------------|---------------------------------|
G|---------------------------------|-----------------------------------------|---------------------------------|
D|---------------------------------|-----------------------------------------|---------------------------------|
A|-----------5---------------5-----|-----------------------------------------|-----------5---------------5-----|
E|-0----0----3-----0----0----3-----|-0----0----2----2----2----2----2----2----|-0----0----3-----0----0----3-----|

E|-----------------------------------------|---------------------------------|-----------------------------------------|
B|-----------------------------------------|---------------------------------|-----------------------------------------|
G|-----------------------------------------|---------------------------------|-----------------------------------------|
D|-----------------------------------------|---------------------------------|-----------------------------------------|
A|-----------------------------------------|-----------5---------------5-----|-----------------------------------------|
E|-0----0----2----2----2----2----2----2----|-0----0----3-----0----0----3-----|-0----0----2----2----2----2----2----2----|

E|---------------------------------|-----------------------------------------|---------|
B|---------------------------------|-----------------------------------------|---------|
G|---------------------------------|-----------------------------------------|---------|
D|---------------------------------|-----------------------------------------|-2-------|
A|-----------5---------------5-----|-----------------------------------------|-2-------|
E|-0----0----3-----0----0----3-----|-0----0----2----2----2----2----2----2----|-0-------|

E|---------------------------------|---------|---------------|---------|---------------------------------|
B|---------------------------------|---------|---------------|---------|---------------------------------|
G|----------------------5-----7----|-7-------|-7------10-----|-9-------|-9--------------------5-----7----|
D|-2--------------------5-----7----|-7-------|-7------10-----|-9-------|-9--------------------5-----7----|
A|-2--------------------3-----5----|-5-------|-5------8------|-7-------|-7--------------------3-----5----|
E|-0-----0----0----0---------------|---------|---------------|---------|-------0----0----0---------------|

E|---------|---------------|---------|---------------------------------|---------|---------------|
B|---------|---------------|---------|---------------------------------|---------|---------------|
G|-7-------|-10-----12-----|-9-------|-9--------------------5-----7----|-7-------|-7------10-----|
D|-7-------|-10-----12-----|-9-------|-9--------------------5-----7----|-7-------|-7------10-----|
A|-5-------|-8------10-----|-7-------|-7--------------------3-----5----|-5-------|-5------8------|
E|---------|---------------|---------|-------0----0----0---------------|---------|---------------|

E|---------|---------------------------------|---------|-------------------------|-----------------------------------------|
B|---------|---------------------------------|---------|-------------------------|-----------------------------------------|
G|-9-------|-9--------------------5-----7----|-7-------|-7-----4-----6-----------|-----------------------------------------|
D|-9-------|-9--------------------5-----7----|-7-------|-7-----4-----6-----4-----|-----------2--------------2---------2----|
A|-7-------|-7--------------------3-----5----|-5-------|-5-----2-----4-----4-----|-----------2--------------2---------2----|
E|---------|-------0----0----0---------------|---------|-------------------2-----|-0----0---------0----0---------0---------|

E|-----------------------------------------------|-----------------------------------------|
B|-----------------------------------------------|-----------------------------------------|
G|-----------------------------------------------|-----------------------------------------|
D|-----------2-----------------------------------|-----------2--------------2---------2----|
A|-----------2---------2----3----2---3---2---0---|-----------2--------------2---------2----|
E|-0----0---------0------------------------------|-0----0---------0----0---------0---------|

E|-----------------------------------------------|---------|---------|---------|-------------------------|
B|-----------------------------------------------|---------|---------|---------|-------------------------|
G|-----------------------------------------------|---------|---------|---------|-------4-----6-----------|
D|-----------2-----------------------------------|-2-------|-2-------|-2-------|-2-----4-----6-----4-----|
A|-----------2---------2----3----2---3---2---0---|-2-------|-2-------|-2-------|-2-----2-----4-----4-----|
E|-0----0---------0------------------------------|-0-------|-0-------|-0-------|-0-----------------2-----|

E|-----------------------------------------|-----------------------------------------------|
B|-----------------------------------------|-----------------------------------------------|
G|-----------------------------------------|-----------------------------------------------|
D|-----------2--------------2---------2----|-----------2-----------------------------------|
A|-----------2--------------2---------2----|-----------2---------2----3----2---3---2---0---|
E|-0----0---------0----0---------0---------|-0----0---------0------------------------------|

E|-----------------------------------------|---------------------------------|-----------------------------------------|
B|-----------------------------------------|---------------------------------|-----------------------------------------|
G|-----------2--------------2---------2----|-----------2---------2-----5-----|-----------------------------------------|
D|-----------2--------------2---------2----|-----------2---------2-----5-----|-----------2--------------2---------2----|
A|-0----0----0----0----0----0----0----0----|-0----0----0----0----0-----3-----|-----------2--------------2---------2----|
E|-----------------------------------------|---------------------------------|-0----0---------0----0---------0---------|

E|-----------------------------------------------|-----------------------------------------|
B|-----------------------------------------------|-----------------------------------------|
G|-----------------------------------------------|-----------2--------------2---------2----|
D|-----------2-----------------------------------|-----------2--------------2---------2----|
A|-----------2---------2----3----2---3---2---0---|-0----0----0----0----0----0----0----0----|
E|-0----0---------0------------------------------|-----------------------------------------|

E|---------------------------------|-----------------------------------------|-----------------------------------------------|
B|---------------------------------|-----------------------------------------|-----------------------------------------------|
G|-----------2---------2-----5-----|-----------------------------------------|-----------------------------------------------|
D|-----------2---------2-----5-----|-----------2--------------2---------2----|-----------2-----------------------------------|
A|-0----0----0----0----0-----3-----|-----------2--------------2---------2----|-----------2---------2----3----2---3---2---0---|
E|---------------------------------|-0----0---------0----0---------0---------|-0----0---------0------------------------------|

E|-----------------------------------------|---------------------------------|-----------------------------------------|
B|-----------------------------------------|---------------------------------|-----------------------------------------|
G|-----------2--------------2---------2----|-----------2---------2-----5-----|-----------------------------------------|
D|-----------2--------------2---------2----|-----------2---------2-----5-----|-----------2--------------2---------2----|
A|-0----0----0----0----0----0----0----0----|-0----0----0----0----0-----3-----|-----------2--------------2---------2----|
E|-----------------------------------------|---------------------------------|-0----0---------0----0---------0---------|

E|-----------------------------------------------|-----------------------------------------|
B|-----------------------------------------------|-----------------------------------------|
G|-----------------------------------------------|-----------2--------------2---------2----|
D|-----------2-----------------------------------|-----------2--------------2---------2----|
A|-----------2---------2----3----2---3---2---0---|-0----0----0----0----0----0----0----0----|
E|-0----0---------0------------------------------|-----------------------------------------|

E|---------------------------------|---------------------------------|-----------------------------------------|
B|---------------------------------|---------------------------------|-----------------------------------------|
G|-----------2---------2-----5-----|---------------------------------|-----------------------------------------|
D|-----------2---------2-----5-----|---------------------------------|-----------------------------------------|
A|-0----0----0----0----0-----3-----|-----------5---------------5-----|-----------------------------------------|
E|---------------------------------|-0----0----3-----0----0----3-----|-0----0----2----2----2----2----2----2----|

E|---------------------------------|-----------------------------------------|---------------------------------|
B|---------------------------------|-----------------------------------------|---------------------------------|
G|---------------------------------|-----------------------------------------|---------------------------------|
D|---------------------------------|-----------------------------------------|---------------------------------|
A|-----------5---------------5-----|-----------------------------------------|-----------5---------------5-----|
E|-0----0----3-----0----0----3-----|-0----0----2----2----2----2----2----2----|-0----0----3-----0----0----3-----|

E|-----------------------------------------|---------------------------------|-----------------------------------------|
B|-----------------------------------------|---------------------------------|-----------------------------------------|
G|-----------------------------------------|---------------------------------|-----------------------------------------|
D|-----------------------------------------|---------------------------------|-----------------------------------------|
A|-----------------------------------------|-----------5---------------5-----|-----------------------------------------|
E|-0----0----2----2----2----2----2----2----|-0----0----3-----0----0----3-----|-0----0----2----2----2----2----2----2----|

E|---------|---------------------------------|---------|---------------|---------|---------------------------------|
B|---------|---------------------------------|---------|---------------|---------|---------------------------------|
G|---------|----------------------5-----7----|-7-------|-7------10-----|-9-------|-9--------------------5-----7----|
D|-2-------|-2--------------------5-----7----|-7-------|-7------10-----|-9-------|-9--------------------5-----7----|
A|-2-------|-2--------------------3-----5----|-5-------|-5------8------|-7-------|-7--------------------3-----5----|
E|-0-------|-0-----0----0----0---------------|---------|---------------|---------|-------0----0----0---------------|

E|---------|---------------|---------|---------------------------------|---------|---------------|
B|---------|---------------|---------|---------------------------------|---------|---------------|
G|-7-------|-10-----12-----|-9-------|-9--------------------5-----7----|-7-------|-7------10-----|
D|-7-------|-10-----12-----|-9-------|-9--------------------5-----7----|-7-------|-7------10-----|
A|-5-------|-8------10-----|-7-------|-7--------------------3-----5----|-5-------|-5------8------|
E|---------|---------------|---------|-------0----0----0---------------|---------|---------------|

E|---------|---------------------------------|---------|-------------------------|---------|
B|---------|---------------------------------|---------|-------------------------|---------|
G|-9-------|-9--------------------5-----7----|-7-------|-7-----4-----6-----------|-%-------|
D|-9-------|-9--------------------5-----7----|-7-------|-7-----4-----6-----4-----|-%-------|
A|-7-------|-7--------------------3-----5----|-5-------|-5-----2-----4-----4-----|---------|
E|---------|-------0----0----0---------------|---------|-------------------2-----|---------|

E|----------------------------|---------------|----------------------------|---------------|
B|----------------------------|---------------|----------------------------|---------------|
G|-9--------------------------|-10-----7------|-9--------------------------|-12-----10-----|
D|-9--------------------------|-10-----7------|-9--------------------------|-12-----10-----|
A|-7--------------------------|-8------5------|-7--------------------------|-10-----8------|
E|--------0----0----0----0----|---------------|--------0----0----0----0----|---------------|

E|----------------------------|---------------|----------------------------|---------------|
B|----------------------------|---------------|----------------------------|---------------|
G|-9--------------------------|-10-----7------|-9--------------------------|-12-----10-----|
D|-9--------------------------|-10-----7------|-9--------------------------|-12-----10-----|
A|-7--------------------------|-8------5------|-7--------------------------|-10-----8------|
E|--------0----0----0----0----|---------------|--------0----0----0----0----|---------------|

E|----------------------------|---------------|----------------------------|---------------|
B|----------------------------|---------------|----------------------------|---------------|
G|-9--------------------------|-10-----7------|-9--------------------------|-12-----10-----|
D|-9--------------------------|-10-----7------|-9--------------------------|-12-----10-----|
A|-7--------------------------|-8------5------|-7--------------------------|-10-----8------|
E|--------0----0----0----0----|---------------|--------0----0----0----0----|---------------|

E|----------------------------|---------------|----------------------------|---------------|
B|----------------------------|---------------|----------------------------|---------------|
G|-9--------------------------|-10-----7------|-9--------------------------|-12-----10-----|
D|-9--------------------------|-10-----7------|-9--------------------------|-12-----10-----|
A|-7--------------------------|-8------5------|-7--------------------------|-10-----8------|
E|--------0----0----0----0----|---------------|--------0----0----0----0----|---------------|

E|----------------------------|---------------|----------------------------|---------------|
B|----------------------------|---------------|----------------------------|---------------|
G|-9--------------------------|-10-----7------|-9--------------------------|-12-----10-----|
D|-9--------------------------|-10-----7------|-9--------------------------|-12-----10-----|
A|-7--------------------------|-8------5------|-7--------------------------|-10-----8------|
E|--------0----0----0----0----|---------------|--------0----0----0----0----|---------------|

E|----------------------------|---------------|----------------------------|---------------|
B|----------------------------|---------------|----------------------------|---------------|
G|-9--------------------------|-10-----7------|-9--------------------------|-12-----10-----|
D|-9--------------------------|-10-----7------|-9--------------------------|-12-----10-----|
A|-7--------------------------|-8------5------|-7--------------------------|-10-----8------|
E|--------0----0----0----0----|---------------|--------0----0----0----0----|---------------|

E|----------------------------|---------------|----------------------------|---------------|
B|----------------------------|---------------|----------------------------|---------------|
G|-9--------------------------|-10-----7------|-9--------------------------|-12-----10-----|
D|-9--------------------------|-10-----7------|-9--------------------------|-12-----10-----|
A|-7--------------------------|-8------5------|-7--------------------------|-10-----8------|
E|--------0----0----0----0----|---------------|--------0----0----0----0----|---------------|

E|----------------------------|---------------|----------------------------|---------------|
B|----------------------------|---------------|----------------------------|---------------|
G|-9--------------------------|-10-----7------|-9--------------------------|-12-----10-----|
D|-9--------------------------|-10-----7------|-9--------------------------|-12-----10-----|
A|-7--------------------------|-8------5------|-7--------------------------|-10-----8------|
E|--------0----0----0----0----|---------------|--------0----0----0----0----|---------------|

E|-----------------------------------------|-----------------------------------------------|
B|-----------------------------------------|-----------------------------------------------|
G|-----------------------------------------|-----------------------------------------------|
D|-----------2--------------2---------2----|-----------2-----------------------------------|
A|-----------2--------------2---------2----|-----------2---------2----3----2---3---2---0---|
E|-0----0---------0----0---------0---------|-0----0---------0------------------------------|

E|-----------------------------------------|-----------------------------------------------|
B|-----------------------------------------|-----------------------------------------------|
G|-----------------------------------------|-----------------------------------------------|
D|-----------2--------------2---------2----|-----------2-----------------------------------|
A|-----------2--------------2---------2----|-----------2---------2----3----2---3---2---0---|
E|-0----0---------0----0---------0---------|-0----0---------0------------------------------|

E|------------------------|--------------------------|-----------------------------------------|
B|------------------------|--------------------------|-----------------------------------------|
G|-9----%------%-----%----|-------------------7------|-----------------------------------------|
D|-9----%------%-----%----|-2-----3-----5-----7------|-----------2--------------2---------2----|
A|-7----------------------|-2-----3-----5-----5------|-----------2--------------2---------2----|
E|------------------------|-0-----1-----3------------|-0----0---------0----0---------0---------|

E|-----------------------------------------------|-----------------------------------------|
B|-----------------------------------------------|-----------------------------------------|
G|-----------------------------------------------|-----------------------------------------|
D|-----------2-----------------------------------|-----------2--------------2---------2----|
A|-----------2---------2----3----2---3---2---0---|-----------2--------------2---------2----|
E|-0----0---------0------------------------------|-0----0---------0----0---------0---------|

E|-----------------------------------------------|-----------------------------------------|
B|-----------------------------------------------|-----------------------------------------|
G|-----------------------------------------------|-----------------------------------------|
D|-----------2-----------------------------------|-----------2--------------2---------2----|
A|-----------2---------2----3----2---3---2---0---|-----------2--------------2---------2----|
E|-0----0---------0------------------------------|-0----0---------0----0---------0---------|

E|-----------------------------------------------|-----------------------------------------|
B|-----------------------------------------------|-----------------------------------------|
G|-----------------------------------------------|-----------------------------------------|
D|-----------2-----------------------------------|-----------2--------------2---------2----|
A|-----------2---------2----3----2---3---2---0---|-----------2--------------2---------2----|
E|-0----0---------0------------------------------|-0----0---------0----0---------0---------|

E|-----------------------------------------------|-----------------------------------------|
B|-----------------------------------------------|-----------------------------------------|
G|-----------------------------------------------|-----------------------------------------|
D|-----------2-----------------------------------|-----------2--------------2---------2----|
A|-----------2---------2----3----2---3---2---0---|-----------2--------------2---------2----|
E|-0----0---------0------------------------------|-0----0---------0----0---------0---------|

E|-----------------------------------------------|-----------------------------------------|
B|-----------------------------------------------|-----------------------------------------|
G|-----------------------------------------------|-----------------------------------------|
D|-----------2-----------------------------------|-----------2--------------2---------2----|
A|-----------2---------2----3----2---3---2---0---|-----------2--------------2---------2----|
E|-0----0---------0------------------------------|-0----0---------0----0---------0---------|

E|-----------------------------------------------|-----------------------------------------|
B|-----------------------------------------------|-----------------------------------------|
G|-----------------------------------------------|-----------------------------------------|
D|-----------2-----------------------------------|-----------2--------------2---------2----|
A|-----------2---------2----3----2---3---2---0---|-----------2--------------2---------2----|
E|-0----0---------0------------------------------|-0----0---------0----0---------0---------|

E|-----------------------------------------------|-----------------------------------------|
B|-----------------------------------------------|-----------------------------------------|
G|-----------------------------------------------|-----------------------------------------|
D|-----------2-----------------------------------|-----------2--------------2---------2----|
A|-----------2---------2----3----2---3---2---0---|-----------2--------------2---------2----|
E|-0----0---------0------------------------------|-0----0---------0----0---------0---------|

E|-----------------------------------------------|---------------------------------|
B|-----------------------------------------------|---------------------------------|
G|-----------------------------------------------|---------------------------------|
D|-----------2-----------------------------------|---------------------------------|
A|-----------2---------2----3----2---3---2---0---|-----------5---------------5-----|
E|-0----0---------0------------------------------|-0----0----3-----0----0----3-----|

E|-----------------------------------------|---------------------------------|-----------------------------------------|
B|-----------------------------------------|---------------------------------|-----------------------------------------|
G|-----------------------------------------|---------------------------------|-----------------------------------------|
D|-----------------------------------------|---------------------------------|-----------------------------------------|
A|-----------------------------------------|-----------5---------------5-----|-----------------------------------------|
E|-0----0----2----2----2----2----2----2----|-0----0----3-----0----0----3-----|-0----0----2----2----2----2----2----2----|

E|---------------------------------|-----------------------------------------|---------------------------------|
B|---------------------------------|-----------------------------------------|---------------------------------|
G|---------------------------------|-----------------------------------------|---------------------------------|
D|---------------------------------|-----------------------------------------|---------------------------------|
A|-----------5---------------5-----|-----------------------------------------|-----------5---------------5-----|
E|-0----0----3-----0----0----3-----|-0----0----2----2----2----2----2----2----|-0----0----3-----0----0----3-----|

E|-----------------------------------------|---------|---------------------------------|
B|-----------------------------------------|---------|---------------------------------|
G|-----------------------------------------|---------|----------------------5-----7----|
D|-----------------------------------------|-2-------|-2--------------------5-----7----|
A|-----------------------------------------|-2-------|-2--------------------3-----5----|
E|-0----0----2----2----2----2----2----2----|-0-------|-0-----0----0----0---------------|

E|---------|---------------|---------|---------------------------------|---------|---------------|
B|---------|---------------|---------|---------------------------------|---------|---------------|
G|-7-------|-7------10-----|-9-------|-9--------------------5-----7----|-7-------|-10-----12-----|
D|-7-------|-7------10-----|-9-------|-9--------------------5-----7----|-7-------|-10-----12-----|
A|-5-------|-5------8------|-7-------|-7--------------------3-----5----|-5-------|-8------10-----|
E|---------|---------------|---------|-------0----0----0---------------|---------|---------------|

E|---------|---------------------------------|---------|---------------|---------|---------------------------------|
B|---------|---------------------------------|---------|---------------|---------|---------------------------------|
G|-9-------|-9--------------------5-----7----|-7-------|-7------10-----|-9-------|-9--------------------5-----7----|
D|-9-------|-9--------------------5-----7----|-7-------|-7------10-----|-9-------|-9--------------------5-----7----|
A|-7-------|-7--------------------3-----5----|-5-------|-5------8------|-7-------|-7--------------------3-----5----|
E|---------|-------0----0----0---------------|---------|---------------|---------|-------0----0----0---------------|

E|---------|-------------------------|-----------------------------------------|-------------------|
B|---------|-------------------------|-----------------------------------------|-------------------|
G|-7-------|-7-----4-----6-----------|-----------------------------------------|-------------------|
D|-7-------|-7-----4-----6-----4-----|-----------2--------------2---------2----|-2-------2----2----|
A|-5-------|-5-----2-----4-----4-----|-----------2--------------2---------2----|-2-------2----2----|
E|---------|-------------------2-----|-0----0---------0----0---------0---------|-------------------|

E|-----------------------------------------|-------------------|-----------------------------------------|
B|-----------------------------------------|-------------------|-----------------------------------------|
G|-----------------------------------------|-------------------|-----------------------------------------|
D|-----------2--------------2---------3----|-3-------0----0----|-----------2--------------2---------2----|
A|-----------2--------------2---------3----|-3-------0----0----|-----------2--------------2---------2----|
E|-0----0---------0----0---------0---------|-------------------|-0----0---------0----0---------0---------|

E|-------------------|-----------------------------------------|-------------------|
B|-------------------|-----------------------------------------|-------------------|
G|-------------------|-----------------------------------------|-------------------|
D|-2-------2----2----|-----------2--------------2---------3----|-3-------0----0----|
A|-2-------2----2----|-----------2--------------2---------3----|-3-------0----0----|
E|-------------------|-0----0---------0----0---------0---------|-------------------|

E|-----------------------------------------|-------------------|-----------------------------------------|
B|-----------------------------------------|-------------------|-----------------------------------------|
G|-----------------------------------------|-------------------|-----------------------------------------|
D|-----------2--------------2---------2----|-2-------2----2----|-----------2--------------2---------3----|
A|-----------2--------------2---------2----|-2-------2----2----|-----------2--------------2---------3----|
E|-0----0---------0----0---------0---------|-------------------|-0----0---------0----0---------0---------|

E|-------------------|-----------------------------------------|-------------------|
B|-------------------|-----------------------------------------|-------------------|
G|-------------------|-----------------------------------------|-------------------|
D|-3-------0----0----|-----------2--------------2---------2----|-2-------2----2----|
A|-3-------0----0----|-----------2--------------2---------2----|-2-------2----2----|
E|-------------------|-0----0---------0----0---------0---------|-------------------|

E|-----------------------------------------|-------------------|-----------------------------------------|
B|-----------------------------------------|-------------------|-----------------------------------------|
G|-----------------------------------------|-------------------|-----------------------------------------|
D|-----------2--------------2---------3----|-3-------0----0----|-----------2--------------2---------2----|
A|-----------2--------------2---------3----|-3-------0----0----|-----------2--------------2---------2----|
E|-0----0---------0----0---------0---------|-------------------|-0----0---------0----0---------0---------|

E|-------------------|-----------------------------------------|-------------------|
B|-------------------|-----------------------------------------|-------------------|
G|-------------------|-----------------------------------------|-------------------|
D|-2-------2----2----|-----------2--------------2---------3----|-3-------0----0----|
A|-2-------2----2----|-----------2--------------2---------3----|-3-------0----0----|
E|-------------------|-0----0---------0----0---------0---------|-------------------|

E|-----------------------------------------|-------------------|-----------------------------------------|
B|-----------------------------------------|-------------------|-----------------------------------------|
G|-----------------------------------------|-------------------|-----------------------------------------|
D|-----------2--------------2---------2----|-2-------2----2----|-----------2--------------2---------3----|
A|-----------2--------------2---------2----|-2-------2----2----|-----------2--------------2---------3----|
E|-0----0---------0----0---------0---------|-------------------|-0----0---------0----0---------0---------|

E|-------------------|---------------------------------|---------|-----------------------------|
B|-------------------|---------------------------------|---------|-----------------------------|
G|-------------------|-----------9-----7-----5----4----|-4-------|-4-----5-----4----------5----|
D|-3-------0----0----|-----------9-----7-----5----4----|-4-------|-4-----5-----4----------5----|
A|-3-------0----0----|-----------7-----5-----3----2----|-2-------|-2-----3-----2-----0----3----|
E|-------------------|-0----0--------------------------|---------|-----------------------------|

E|---------|-----------------------------|---------|-----------------------------|---------|
B|---------|-----------------------------|---------|-----------------------------|---------|
G|-5-------|-5-----9-----7-----5----4----|-4-------|-4-----5-----4----------5----|-5-------|
D|-5-------|-5-----9-----7-----5----4----|-4-------|-4-----5-----4----------5----|-5-------|
A|-3-------|-3-----7-----5-----3----2----|-2-------|-2-----3-----2-----0----3----|-3-------|
E|---------|-----------------------------|---------|-----------------------------|---------|

E|-----------------------------|---------|-----------------------------|---------|-----------------------------|
B|-----------------------------|---------|-----------------------------|---------|-----------------------------|
G|-5-----9-----7-----5----4----|-4-------|-4-----5-----4----------5----|-5-------|-5-----9-----7-----5----4----|
D|-5-----9-----7-----5----4----|-4-------|-4-----5-----4----------5----|-5-------|-5-----9-----7-----5----4----|
A|-3-----7-----5-----3----2----|-2-------|-2-----3-----2-----0----3----|-3-------|-3-----7-----5-----3----2----|
E|-----------------------------|---------|-----------------------------|---------|-----------------------------|

E|---------|-----------------------------|---------|-------------------------------------|
B|---------|-----------------------------|---------|-------------------------------------|
G|-4-------|-4-----5-----4----------5----|-5-------|--------------------------%----9-----|
D|-4-------|-4-----5-----4----------5----|-5-------|--------------------------%----9-----|
A|-2-------|-2-----3-----2-----0----3----|-3-------|-------------------------------7-----|
E|---------|-----------------------------|---------|-0----0----0----0----0---------------|

E|---------|-----------------------------------------|---------|-------------------------------------|
B|---------|-----------------------------------------|---------|-------------------------------------|
G|-9-------|--------------------------%----9----7----|-7-------|--------------------------%----9-----|
D|-9-------|--------------------------%----9----7----|-7-------|--------------------------%----9-----|
A|-7-------|-------------------------------7----5----|-5-------|-------------------------------7-----|
E|---------|-0----0----0----0----0-------------------|---------|-0----0----0----0----0---------------|

E|---------|-----------------------------------------|---------|-------------------------------------|
B|---------|-----------------------------------------|---------|-------------------------------------|
G|-9-------|--------------------------%----9----7----|-7-------|--------------------------%----9-----|
D|-9-------|--------------------------%----9----7----|-7-------|--------------------------%----9-----|
A|-7-------|-------------------------------7----5----|-5-------|-------------------------------7-----|
E|---------|-0----0----0----0----0-------------------|---------|-0----0----0----0----0---------------|

E|------------------------|-----------------------------------------|------------------------|
B|------------------------|-----------------------------------------|------------------------|
G|-9------9----%-----%----|--------------------------%----9----7----|-7------7----%-----%----|
D|-9------9----%-----%----|--------------------------%----9----7----|-7------7----%-----%----|
A|-7------7---------------|-------------------------------7----5----|-5------5---------------|
E|------------------------|-0----0----0----0----0-------------------|------------------------|

E|-------------------------------------|------------------------|-----------------------------------------|
B|-------------------------------------|------------------------|-----------------------------------------|
G|--------------------------%----9-----|-9------9----%-----%----|--------------------------%----9----7----|
D|--------------------------%----9-----|-9------9----%-----%----|--------------------------%----9----7----|
A|-------------------------------7-----|-7------7---------------|-------------------------------7----5----|
E|-0----0----0----0----0---------------|------------------------|-0----0----0----0----0-------------------|

E|------------------------|---------------|---------------|-------------------------------------------------------------|
B|------------------------|---------------|---------------|-------------------------------------------------------------|
G|-7------7----%-----%----|-%-------------|---------------|-------------------------------------------------------------|
D|-7------7----%-----%----|-%------2------|--------5------|-2----2----2----2----2----2----2----2----2----2----2----2----|
A|-5------5---------------|--------0------|-5------2------|-2----2----2----2----2----2----2----2----2----2----2----2----|
E|------------------------|---------------|-3-------------|-0----0----0----0----0----0----0----0----0----0----0----0----|

E|-------------------------------------------------------------|-------------------------------------------------------------|
B|-------------------------------------------------------------|-------------------------------------------------------------|
G|-------------------------------------------------------------|-------------------------------------------------------------|
D|-2----2----2----2----2----2----2----2----2----2----2----2----|-2----2----2----2----2----2----2----2----2----2----2----2----|
A|-2----2----2----2----2----2----2----2----2----2----2----2----|-2----2----2----2----2----2----2----2----2----2----2----2----|
E|-0----0----0----0----0----0----0----0----0----0----0----0----|-0----0----0----0----0----0----0----0----0----0----0----0----|

E|-------------------------------------------------------------|-------------------------------------------------------------|
B|-------------------------------------------------------------|-------------------------------------------------------------|
G|-------------------------------------------------------------|-------------------------------------------------------------|
D|-2----2----2----2----2----2----2----2----2----2----2----2----|-2----2----2----2----2----2----2----2----2----2----2----2----|
A|-2----2----2----2----2----2----2----2----2----2----2----2----|-2----2----2----2----2----2----2----2----2----2----2----2----|
E|-0----0----0----0----0----0----0----0----0----0----0----0----|-0----0----0----0----0----0----0----0----0----0----0----0----|

E|---------------|--------------------|
B|---------------|--------------------|
G|---------------|-------%------%-----|
D|-2-------2-----|-2-----%------%-----|
A|-2-------2-----|-2------------------|
E|-0-------0-----|-0------------------|
Metallica - Creeping Death (3)
Metallica - Creeping Death (3).gp3