Metallica - Creeping Death (solo)

Metallica - Creeping Death (solo)

Metallica



Title: Creeping Death
Album: 
Artist: 
Author: 

Track 1: kirk's solo
E|---------------------------------|---------|---------------------------------|-------------------|
B|---------------------------------|---------|---------------------------------|-------------------|
G|-%-------------------------------|---------|---------------------------------|-------------------|
D|-%-----X----X----X----X----X-----|-9-------|-9-----X----X----X----X----X-----|-9----7-------7----|
A|-------X----X----X----X----X-----|-7-------|-7-----X----X----X----X----X-----|-7----5-------5----|
E|-------0----0----0----0----0-----|---------|-------0----0----0----0----0-----|-------------------|

E|---------------------------------|---------|---------------------------------|-------------------|
B|---------------------------------|---------|---------------------------------|-------------------|
G|---------------------------------|---------|---------------------------------|-------------------|
D|-7-----X----X----X----X----X-----|-9-------|-9-----X----X----X----X----X-----|-9----7-------7----|
A|-5-----X----X----X----X----X-----|-7-------|-7-----X----X----X----X----X-----|-7----5-------5----|
E|-------0----0----0----0----0-----|---------|-------0----0----0----0----0-----|-------------------|

E|---------------------------------|--------------------|---------------------------------|
B|---------------------------------|--------------------|---------------------------------|
G|---------------------------------|-4------4-----%-----|-%-------------------------------|
D|-7-----X----X----X----X----X-----|-5------5-----%-----|-%-----X----X----X----X----X-----|
A|-5-----X----X----X----X----X-----|--------------------|-------X----X----X----X----X-----|
E|-------0----0----0----0----0-----|--------------------|-------0----0----0----0----0-----|

E|-7----5------5----------|---------------------------------|-7------7-----------|---------------------------------|
B|------------------------|---------------------------------|--------------------|---------------------------------|
G|-4----2------2-----%----|-%-------------------------------|-4------4-----%-----|-%-------------------------------|
D|-5----4------4-----%----|-%-----X----X----X----X----X-----|-5------5-----%-----|-%-----X----X----X----X----X-----|
A|------------------------|-------X----X----X----X----X-----|--------------------|-------X----X----X----X----X-----|
E|------------------------|-------0----0----0----0----0-----|--------------------|-------0----0----0----0----0-----|

E|-7----5------5----------|-------------------------|---------|---------|----------------12-----------------------12---14---12--------|
B|------------------------|-------------------------|---------|---------|-12---13---15--------15---12---13---15------------------15---|
G|-4----2------2-----%----|-%-----------------------|---------|---------|-------------------------------------------------------------|
D|-5----4------4-----%----|-%-----7-----5-----4-----|-2-------|-2-------|-------------------------------------------------------------|
A|------------------------|-------7-----5-----4-----|-2-------|-2-------|-------------------------------------------------------------|
E|------------------------|-------5-----3-----2-----|-0-------|-0-------|-------------------------------------------------------------|

E|------12---14---12---14---15---14---15---17---19---20---22---|-22-----22-----22----|
B|-15----------------------------------------------------------|---------------------|
G|-------------------------------------------------------------|---------------------|
D|-------------------------------------------------------------|---------------------|
A|-------------------------------------------------------------|---------------------|
E|-------------------------------------------------------------|---------------------|

E|-22----22---22-----22--24--22--19--|-22--20--19--17--21--19--17--15--19--17--15--14--17--15--14--12--|
B|-----------------------------------|-----------------------------------------------------------------|
G|-----------------------------------|-----------------------------------------------------------------|
D|-----------------------------------|-----------------------------------------------------------------|
A|-----------------------------------|-----------------------------------------------------------------|
E|-----------------------------------|-----------------------------------------------------------------|

E|-15--14------------------------------------------------|-----------------------------------------|
B|---------17--15--15--14--12--14--12--10--10------------|-----------15---15---12------------------|
G|---------------------------------------------12----12--|-12---14---14---14---12--------12---14---|
D|-------------------------------------------------------|--------------------------14-------------|
A|-------------------------------------------------------|-----------------------------------------|
E|-------------------------------------------------------|-----------------------------------------|

E|-----------------------------------------|--------------------------------------------------------|
B|-----------------------------------------|------12---15--12--15--12-----------12--15--12--15--12--|
G|-14---14---12---13--------12---14---16---|-16------------------------14---16----------------------|
D|---------------------14------------------|--------------------------------------------------------|
A|-----------------------------------------|--------------------------------------------------------|
E|-----------------------------------------|--------------------------------------------------------|

E|----------------------------------|-15---12--------12--------------------------------------14---|
B|------12--15--12--15--12---15-----|-----------15--------15---12---15---12--------12-------------|
G|-14-------------------------------|-----------------------------------------14--------14--------|
D|----------------------------------|-------------------------------------------------------------|
A|----------------------------------|-------------------------------------------------------------|
E|----------------------------------|-------------------------------------------------------------|

E|-17---15---14---15---14--------14----------------------------|---------------------------------------------------|
B|--------------------------17--------17---15---17---15---14---|-12---14---12--------12----------------------------|
G|-------------------------------------------------------------|----------------14--------14---12--------12---14---|
D|-------------------------------------------------------------|------------------------------------14-------------|
A|-------------------------------------------------------------|---------------------------------------------------|
E|-------------------------------------------------------------|---------------------------------------------------|

E|-----------17---19---22-----|---------12--17--12------------------12--17--12------------------|
B|------18--------------------|-----13--------------13----------13--------------13----------12--|
G|-19-------------------------|-14----------------------14--14----------------------14--14------|
D|----------------------------|-----------------------------------------------------------------|
A|----------------------------|-----------------------------------------------------------------|
E|----------------------------|-----------------------------------------------------------------|

E|-12--17--12----------------------12--17--12----------12--15--12--|--------------------------------------------------------------|
B|-------------13--------------13--------------13------------------|-15--12------12--15--12------12-------------------------------|
G|-----------------14--14--14----------------------14--------------|---------14--------------14------14--12------12---------------|
D|-----------------------------------------------------------------|-----------------------------------------14------14--12--14---|
A|-----------------------------------------------------------------|--------------------------------------------------------------|
E|-----------------------------------------------------------------|--------------------------------------------------------------|

E|--------------------|-----------------------------------------------------------------|
B|-15----15----15-----|-----------------------------------------------------------------|
G|-14----14----14-----|-----------------------------------------------------------------|
D|--------------------|-----------------------------------------------------------------|
A|--------------------|-X---X---X---7---7---7---8---8---8---8---8---8---9---9---9---9---|
E|--------------------|-----------------------------------------------------------------|

E|-----------------------------------------------------------------|-----------------------------------------------------------------|
B|-----------------------------------------------------------------|-----------------------------------------------------------------|
G|-----------------------------------------------------------------|-------------------------------------------------------------11--|
D|-----------------------------------------------------------------|---------------------------------------------------------11------|
A|-9---10--9---10--9---11--10--12--11--12--11--12--11--13--12--14--|-13--14--13--14--14--15--15--14--14--15--14--14--14--15----------|
E|-----------------------------------------------------------------|-----------------------------------------------------------------|

E|-----------------------------------------------------------------|--------------------------------------------------------14---|
B|---------------------------------------------------------12--14--|--------------------------14---17---14--------14---17--------|
G|-12--11--12--11--12--12--12--12--13--12--13--15--15--15----------|-17---14---13---14---16------------------16------------------|
D|-----------------------------------------------------------------|-------------------------------------------------------------|
A|-----------------------------------------------------------------|-------------------------------------------------------------|
E|-----------------------------------------------------------------|-------------------------------------------------------------|

E|-17---14-----------------------------------------------------|-------------------------------------------------------------|
B|-----------17---14--------14---17---14-----------------------|-------------------------------------------------------------|
G|---------------------16------------------16---14--------14---|-16---14--------14-------------------------------------------|
D|---------------------------------------------------16--------|-----------16--------16---14---16---14--------14-------------|
A|-------------------------------------------------------------|-----------------------------------------16--------16---14---|
E|-------------------------------------------------------------|-------------------------------------------------------------|

E|----------------------------------------------------|----------------------------|
B|----------------------------------------------------|----------------------------|
G|----------------------------------------------------|-------------11---12---14---|
D|----------------------------------------------12----|-14-----14------------------|
A|-16---14---12---14---12-------------12---14---------|----------------------------|
E|--------------------------14---12-------------------|----------------------------|

E|-----------------------------|----------------------------|-------------------------|
B|-----------------------------|----------------------------|-------12----13----15----|
G|-14----12----11---12---11----|-------------11---12---14---|-14----------------------|
D|-----------------------------|-12-----14------------------|-------------------------|
A|-----------------------------|----------------------------|-------------------------|
E|-----------------------------|----------------------------|-------------------------|

E|-12-----12---14---15---17---|-17----15----14----------|-17-----17---19---20----|-19----17----15----14---15---|
B|----------------------------|-------------------17----|------------------------|-----------------------------|
G|----------------------------|-------------------------|------------------------|-----------------------------|
D|----------------------------|-------------------------|------------------------|-----------------------------|
A|----------------------------|-------------------------|------------------------|-----------------------------|
E|----------------------------|-------------------------|------------------------|-----------------------------|

E|-15---14---12---15---14---12---15---14---12---15---14---12---|-15---14---12---15---14---12---15---14---12---15---14---12---|
B|-------------------------------------------------------------|-------------------------------------------------------------|
G|-------------------------------------------------------------|-------------------------------------------------------------|
D|-------------------------------------------------------------|-------------------------------------------------------------|
A|-------------------------------------------------------------|-------------------------------------------------------------|
E|-------------------------------------------------------------|-------------------------------------------------------------|

E|-17---15---14---17---15---14---17---15---14---17---15---14---|-17---15---14---17---15---14---17---15---14---17---15---14---|
B|-------------------------------------------------------------|-------------------------------------------------------------|
G|-------------------------------------------------------------|-------------------------------------------------------------|
D|-------------------------------------------------------------|-------------------------------------------------------------|
A|-------------------------------------------------------------|-------------------------------------------------------------|
E|-------------------------------------------------------------|-------------------------------------------------------------|

E|-19---17---15---19---17---15---19---17---15---19---15---16---|-20---19---17---20---19---17---22---20---19---22---20---19---|
B|-------------------------------------------------------------|-------------------------------------------------------------|
G|-------------------------------------------------------------|-------------------------------------------------------------|
D|-------------------------------------------------------------|-------------------------------------------------------------|
A|-------------------------------------------------------------|-------------------------------------------------------------|
E|-------------------------------------------------------------|-------------------------------------------------------------|

E|-22-----22-----|-22----22----22-----|---------|---------|
B|---------------|--------------------|---------|---------|
G|---------------|--------------------|-%-------|-%-------|
D|---------------|--------------------|-%-------|-%-------|
A|---------------|--------------------|---------|---------|
E|---------------|--------------------|---------|---------|
Metallica - Creeping Death (solo)
Metallica - Creeping Death (solo).gp3