Metallica - Cunning Stunts Bass Guitar Doodle

Metallica



Title: Bass/Guitar Doodle
Album: Cunning Stunts
Artist: Metallica
Author: Chris Clemens

Track 1: Jason
F#|-------14---16---14---13-----|-14---16---14---13----13--14--13--------|---------------------------------|
C#|-----------------------------|-----------------------------------16---|-14-------------19---------------|
G#|-----------------------------|----------------------------------------|------16--------------16---------|
D#|-0---------------------------|----------------------------------------|-----------17---------------17---|

F#|-----------------------------|----------------11--------------11---|-----------11-------------11-------------|
C#|------------19---------------|------12--------------12-------------|-12-------------12-------------12--------|
G#|------16----------16---------|-0---------0---------------0---------|------0--------------0--------------0----|
D#|-17---------------------0----|-------------------------------------|-----------------------------------------|

F#|-------------12----------|-------------12-----|-------------11-------------11---|
C#|-------9-----------9-----|-------9------------|------------------12-------------|
G#|-10----------------------|-10-----------------|-0----0----------------0---------|
D#|-------------------------|--------------------|---------------------------------|

F#|-----------11-------------11-------------|-------------12----------|-------------12----------|
C#|-12-------------12-------------12--------|-------9-----------9-----|-------9-----------9-----|
G#|------0--------------0--------------0----|-10----------------------|-10----------------------|
D#|-----------------------------------------|-------------------------|-------------------------|

F#|-----------14---16---14---13-----|-14---16---14---13----13--14--13--------|---------------------------------|
C#|---------------------------------|-----------------------------------16---|-14-------------19---------------|
G#|---------------------------------|----------------------------------------|------16--------------16---------|
D#|-0----0--------------------------|----------------------------------------|-----------17---------------17---|

F#|-----------------------------|----------------11--------------11---|-----------11-------------11-------------|
C#|------------19---------------|------12--------------12-------------|-12-------------12-------------12--------|
G#|------16----------16---------|-0---------0---------------0---------|------0--------------0--------------0----|
D#|-17---------------------0----|-------------------------------------|-----------------------------------------|

F#|-------------12----------|-------------12-----|-------------11-------------11---|
C#|-------9-----------9-----|-------9------------|------------------12-------------|
G#|-10----------------------|-10-----------------|-0----0----------------0---------|
D#|-------------------------|--------------------|---------------------------------|

F#|-----------11-------------11-------------|-------------12----------|-------12-----12--12-----12-|
C#|-12-------------12-------------12--------|-------9-----------9-----|----9-----------------------|
G#|------0--------------0--------------0----|-10----------------------|-10-------------------------|
D#|-----------------------------------------|-------------------------|----------------------------|

F#|------10-------------10-------------10---|-14-------------12-------------10--------|
C#|-----------12-------------12-------------|------12-------------12------------------|
G#|-0--------------0--------------0---------|-----------0--------------0---------0----|
D#|-----------------------------------------|-----------------------------------------|

F#|------9--------------9--------------9----|-12-------------10-------------9---------|
C#|-----------10-------------10-------------|------10-------------10------------------|
G#|-0--------------0--------------0---------|-----------0--------------0---------0----|
D#|-----------------------------------------|-----------------------------------------|

F#|------10-------------10-------------10---|-14-------------12-------------10--------|
C#|-----------12-------------12-------------|------12-------------12------------------|
G#|-0--------------0--------------0---------|-----------0--------------0---------0----|
D#|-----------------------------------------|-----------------------------------------|

F#|------9--------------9--------------9----|-12-------------10-------------9---------|
C#|-----------10-------------10-------------|------10-------------10------------------|
G#|-0--------------0--------------0---------|-----------0--------------0---------0----|
D#|-----------------------------------------|-----------------------------------------|

F#|------10-------------10-------------10---|-14-------------12-------------10--------|
C#|-----------12-------------12-------------|------12-------------12------------------|
G#|-0--------------0--------------0---------|-----------0--------------0---------0----|
D#|-----------------------------------------|-----------------------------------------|

F#|------9--------------9--------------9----|-12-------------10-------------9---------|
C#|-----------10-------------10-------------|------10-------------10------------------|
G#|-0--------------0--------------0---------|-----------0--------------0---------0----|
D#|-----------------------------------------|-----------------------------------------|

F#|------10-------------10-------------10---|-14-------------12-------------10--------|
C#|-----------12-------------12-------------|------12-------------12------------------|
G#|-0--------------0--------------0---------|-----------0--------------0---------0----|
D#|-----------------------------------------|-----------------------------------------|

F#|------9--------------9--------------9----|-12-------------10-------------9---------|
C#|-----------10-------------10-------------|------10-------------10------------------|
G#|-0--------------0--------------0---------|-----------0--------------0---------0----|
D#|-----------------------------------------|-----------------------------------------|

F#|------10-------------10-------------10---|-14-------------12-------------10--------|
C#|-----------12-------------12-------------|------12-------------12------------------|
G#|-0--------------0--------------0---------|-----------0--------------0---------0----|
D#|-----------------------------------------|-----------------------------------------|

F#|------9--------------9--------------9----|-12-------------10-------------9---------|
C#|-----------10-------------10-------------|------10-------------10------------------|
G#|-0--------------0--------------0---------|-----------0--------------0---------0----|
D#|-----------------------------------------|-----------------------------------------|

F#|------10-------------10-------------10---|-14-------------12-------------10--------|
C#|-----------12-------------12-------------|------12-------------12------------------|
G#|-0--------------0--------------0---------|-----------0--------------0---------0----|
D#|-----------------------------------------|-----------------------------------------|

F#|------9--------------9--------------9----|-12-------------10-------------9---------|
C#|-----------10-------------10-------------|------10-------------10------------------|
G#|-0--------------0--------------0---------|-----------0--------------0---------0----|
D#|-----------------------------------------|-----------------------------------------|

F#|-----------7---------4--------------5----|-5--------------5--------------5---------|
C#|------5---------5---------5--------------|------7--------------7--------------7----|
G#|-0-----------------------------0---------|-----------0--------------0--------------|
D#|-----------------------------------------|-----------------------------------------|

F#|-----------7---------4--------------5----|-5--------------5--------------5---------|
C#|------5---------5---------5--------------|------7--------------7--------------7----|
G#|-0-----------------------------0---------|-----------0--------------0--------------|
D#|-----------------------------------------|-----------------------------------------|

F#|-----------7---------4--------------5----|-5--------------5--------------5---------|
C#|------5---------5---------5--------------|------7--------------7--------------7----|
G#|-0-----------------------------0---------|-----------0--------------0--------------|
D#|-----------------------------------------|-----------------------------------------|

F#|-----------7---------4--------------5----|-5--------------7--------------9---------|
C#|------5---------5---------5--------------|------7--------------9--------------10---|
G#|-0-----------------------------0---------|-----------0--------------0--------------|
D#|-----------------------------------------|-----------------------------------------|

F#|--------------------------12---|-12------|---------|---------|---------|---------|
C#|-%------------9-----12---------|---------|-%-------|-%-------|-%-------|-%-------|
G#|-%------10---------------------|---------|-%-------|-%-------|-%-------|-%-------|
D#|-------------------------------|---------|---------|---------|---------|---------|

F#|---------|---------|---------|-----------------|---------|--------2-----2----2--2--0----|
C#|-%-------|-%-------|-%-------|-%-----%------%--|-%-------|-%----------------------------|
G#|-%-------|-%-------|-%-------|-%-----%------%--|-%-------|-%----------------------------|
D#|---------|---------|---------|-----------------|---------|------------------------------|

F#|-0-----0---0--2-----|---------|--------2-----2----2--2--4----|-4------------0--2-----|
C#|--------------------|-2-------|-2----------------------------|------2----2-----------|
G#|--------------------|---------|------------------------------|-----------------------|
D#|--------------------|---------|------------------------------|-----------------------|

F#|-------------------------|-------------------------|-----------------|-------------------------|
C#|-------------------------|-0------0----------------|-----------------|-------------------------|
G#|-------------3------3----|-------------0-----------|-----------0-----|-------------3------3----|
D#|-0------0----------------|--------------------3----|-3----3----------|-0------0----------------|

F#|-------------------------|-----------------|---------|---------|-------------|--------------|
C#|-0------0----------------|-----------------|-%-------|-%-------|-%------%----|-%-----%------|
G#|-------------0-----------|-----------------|-%-------|-%-------|-%------%----|-%-----%------|
D#|--------------------3----|-3----3----2-----|---------|---------|-------------|--------------|

F#|--------------|--------------|--------------|--------------|--------------|------------|
C#|-%------%-----|-%------%-----|-%-----%------|-%-----%------|-%-----%------|-%-----%----|
G#|-%------%-----|-%------%-----|-%-----%------|-%-----%------|-%-----%------|-%-----%----|
D#|--------------|--------------|--------------|--------------|--------------|------------|

F#|--------------|--------------|--------------|--------------|--------------|--------------|
C#|-%------%-----|-%------%-----|-%------%-----|-%------%-----|-%------%-----|-%------%-----|
G#|-%------%-----|-%------%-----|-%------%-----|-%------%-----|-%------%-----|-%------%-----|
D#|--------------|--------------|--------------|--------------|--------------|--------------|

F#|--------------|--------------|------|
C#|-%------%-----|-%------%-----|-%----|
G#|-%------%-----|-%------%-----|-%----|
D#|--------------|--------------|------|
Metallica - Cunning Stunts Bass Guitar Doodle
Metallica - Cunning Stunts Bass Guitar Doodle.gp3