Metallica - Damage Case

Metallica - Damage Case

Metallica



Title: Damage Case
Album: 
Artist: 
Author: Metallica

Track 1: Guitar 1
D#|--------------|-------------------------|-------------------------|---------------------------------|
A#|--------------|-------------------------|-------------------------|---------------------------------|
F#|-%-----%------|------12----------12-----|------12----------14-----|---------------------------------|
C#|-%-----%------|------12----------12-----|------12----------14-----|---------------------------------|
G#|--------------|-14----------14----------|-14----------14----------|-7-----7----5----7-----7----5----|
D#|--------------|-------------------------|-------------------------|-0-----0---------0-----0---------|

D#|-------------------------------------|-----------------------------|-------------------------------------|
A#|-------------------------------------|-----------------------------|-------------------------------------|
F#|----------------------12---%----12---|-12--------------------------|----------------------12---%----12---|
C#|----------------------12---%----12---|-12--------------------------|----------------------12---%----12---|
G#|-7-----7----5----7-------------------|-------7-----7-----7----5----|-7-----7----5----7-------------------|
D#|-0-----0---------0-------------------|-------0-----0-----0---------|-0-----0---------0-------------------|

D#|-----------------------------|-------------------------------------|-----------------------------|
A#|-----------------------------|-------------------------------------|-----------------------------|
F#|-12--------------------------|----------------------12---%----12---|-12--------------------------|
C#|-12--------------------------|----------------------12---%----12---|-12--------------------------|
G#|-------7-----7-----7----5----|-7-----7----5----7-------------------|-------7-----7-----7----5----|
D#|-------0-----0-----0---------|-0-----0---------0-------------------|-------0-----0-----0---------|

D#|-------------------------------------|-----------------------------|-------------------------------------|
A#|-------------------------------------|-----------------------------|-------------------------------------|
F#|----------------------12---%----12---|-12--------------------------|----------------------12---%----12---|
C#|----------------------12---%----12---|-12--------------------------|----------------------12---%----12---|
G#|-7-----7----5----7-------------------|-------7-----7-----7----5----|-7-----7----5----7-------------------|
D#|-0-----0---------0-------------------|-------0-----0-----0---------|-0-----0---------0-------------------|

D#|-----------------------------|-------------------------------------|-----------------------------|
A#|-----------------------------|-------------------------------------|-----------------------------|
F#|-12--------------------------|-------------------------------------|-----------------------------|
C#|-12--------------------------|-------------------------------------|-9-----9-----9----9----9-----|
G#|-------7-----7-----7----5----|-7-----7----5----7----7----7----0----|-9-----9-----9----9----9-----|
D#|-------0-----0-----0---------|-0-----0---------0----0----0---------|-7-----7-----7----7----7-----|

D#|-------------------------------------|---------------------------------|-------------------------------------|
A#|-------------------------------------|---------------------------------|-------------------------------------|
F#|------------7----7----7----7----7----|---------------------------------|------------7----7----7----7----7----|
C#|-5-----5----7----7----7----7----7----|-9-----9-----9----9----9----9----|-5-----5----7----7----7----7----7----|
G#|-5-----5----5----5----5----5----5----|-9-----9-----9----9----9----9----|-5-----5----5----5----5----5----5----|
D#|-3-----3-----------------------------|-7-----7-----7----7----7----7----|-3-----3-----------------------------|

D#|-----------------------------|---------------------------------|--------------------|
A#|-----------------------------|---------------------------------|--------------------|
F#|-----------------------------|------------7----7----7----7-----|-9-----%-----%------|
C#|-9-----9-----9----9----9-----|-5-----5----7----7----7----7-----|-9-----%-----%------|
G#|-9-----9-----9----9----9-----|-5-----5----5----5----5----5-----|-7------------------|
D#|-7-----7-----7----7----7-----|-3-----3-------------------------|--------------------|

D#|----------------------------|-----------------------------|-----------------------------|
A#|----------------------------|-----------------------------|-----------------------------|
F#|-%------%-------------------|-----------------------------|-----------------------------|
C#|-%------%-------------------|-9-----9-----9----9----9-----|-7-----7-----7----7----7-----|
G#|----------------------------|-9-----9-----9----9----9-----|-7-----7-----7----7----7-----|
D#|-------------X----5----6----|-7-----7-----7----7----7-----|-5-----5-----5----5----5-----|

D#|-------------------------|----------------------------|---------------------------------|
A#|-------------------------|----------------------------|---------------------------------|
F#|-9-----7-----9-----7-----|-9--------------------------|---------------------------------|
C#|-9-----7-----9-----7-----|-9--------------------------|---------------------------------|
G#|-7-----5-----7-----5-----|-7--------------------------|-7-----7----5----7-----7----5----|
D#|-------------------------|------5----6----7----7------|-0-----0---------0-----0---------|

D#|-------------------------------------|-----------------------------|-------------------------------------|
A#|-------------------------------------|-----------------------------|-------------------------------------|
F#|----------------------12---%----12---|-12--------------------------|----------------------12---%----12---|
C#|----------------------12---%----12---|-12--------------------------|----------------------12---%----12---|
G#|-7-----7----5----7-------------------|-------7-----7-----7----5----|-7-----7----5----7-------------------|
D#|-0-----0---------0-------------------|-------0-----0-----0---------|-0-----0---------0-------------------|

D#|-----------------------------|-------------------------------------|-----------------------------|
A#|-----------------------------|-------------------------------------|-----------------------------|
F#|-12--------------------------|----------------------12---%----12---|-12--------------------------|
C#|-12--------------------------|----------------------12---%----12---|-12--------------------------|
G#|-------7-----7-----7----5----|-7-----7----5----7-------------------|-------7-----7-----7----5----|
D#|-------0-----0-----0---------|-0-----0---------0-------------------|-------0-----0-----0---------|

D#|-------------------------------------|-----------------------------|-------------------------------------|
A#|-------------------------------------|-----------------------------|-------------------------------------|
F#|-------------------------------------|-----------------------------|------------7----7----7----7----7----|
C#|-------------------------------------|-9-----9-----9----9----9-----|-5-----5----7----7----7----7----7----|
G#|-7-----7----5----7----7----7----0----|-9-----9-----9----9----9-----|-5-----5----5----5----5----5----5----|
D#|-0-----0---------0----0----0---------|-7-----7-----7----7----7-----|-3-----3-----------------------------|

D#|---------------------------------|-------------------------------------|-----------------------------|
A#|---------------------------------|-------------------------------------|-----------------------------|
F#|---------------------------------|------------7----7----7----7----7----|-----------------------------|
C#|-9-----9-----9----9----9----9----|-5-----5----7----7----7----7----7----|-9-----9-----9----9----9-----|
G#|-9-----9-----9----9----9----9----|-5-----5----5----5----5----5----5----|-9-----9-----9----9----9-----|
D#|-7-----7-----7----7----7----7----|-3-----3-----------------------------|-7-----7-----7----7----7-----|

D#|---------------------------------|--------------------|----------------------------|
A#|---------------------------------|--------------------|----------------------------|
F#|------------7----7----7----7-----|-9-----%-----%------|-%------%-------------------|
C#|-5-----5----7----7----7----7-----|-9-----%-----%------|-%------%-------------------|
G#|-5-----5----5----5----5----5-----|-7------------------|----------------------------|
D#|-3-----3-------------------------|--------------------|-------------X----5----6----|

D#|-----------------------------|-----------------------------|-------------------------|
A#|-----------------------------|-----------------------------|-------------------------|
F#|-----------------------------|-----------------------------|-9-----7-----9-----7-----|
C#|-9-----9-----9----9----9-----|-7-----7-----7----7----7-----|-9-----7-----9-----7-----|
G#|-9-----9-----9----9----9-----|-7-----7-----7----7----7-----|-7-----5-----7-----5-----|
D#|-7-----7-----7----7----7-----|-5-----5-----5----5----5-----|-------------------------|

D#|-----------------------------------------|---------------------------------|-------------------------------------|
A#|-----------------------------------------|---------------------------------|-------------------------------------|
F#|-9---------------------------------------|---------------------------------|----------------------12---%----12---|
C#|-9---------------------------------------|---------------------------------|----------------------12---%----12---|
G#|-7---------------------------------------|-7-----7----5----7-----7----5----|-7-----7----5----7-------------------|
D#|------5----6----7----7----7----7----7----|-0-----0---------0-----0---------|-0-----0---------0-------------------|

D#|-----------------------------|-------------------------------------|-----------------------------|
A#|-----------------------------|-------------------------------------|-----------------------------|
F#|-12--------------------------|----------------------12---%----12---|-12--------------------------|
C#|-12--------------------------|----------------------12---%----12---|-12--------------------------|
G#|-------7-----7-----7----5----|-7-----7----5----7-------------------|-------7-----7-----7----5----|
D#|-------0-----0-----0---------|-0-----0---------0-------------------|-------0-----0-----0---------|

D#|-------------------------------------|-----------------------------|-------------------------------------|
A#|-------------------------------------|-----------------------------|-------------------------------------|
F#|----------------------12---%----12---|-12--------------------------|----------------------12---%----12---|
C#|----------------------12---%----12---|-12--------------------------|----------------------12---%----12---|
G#|-7-----7----5----7-------------------|-------7-----7-----7----5----|-7-----7----5----7-------------------|
D#|-0-----0---------0-------------------|-------0-----0-----0---------|-0-----0---------0-------------------|

D#|-----------------------------|-------------------------------------|-----------------------------|
A#|-----------------------------|----------------------14---14---12---|-12--------------------------|
F#|-12--------------------------|----------------------14---14---12---|-12--------------------------|
C#|-12--------------------------|----------------------14---14---12---|-12--------------------------|
G#|-------7-----7-----7----5----|-7-----7----5----7-------------------|-------7-----7-----7----5----|
D#|-------0-----0-----0---------|-0-----0---------0-------------------|-------0-----0-----0---------|

D#|-------------------------------------|-----------------------------|-------------------------------------|
A#|-------------------------------------|-----------------------------|-------------------------------------|
F#|----------------------12---%----12---|-12--------------------------|----------------------12---%----12---|
C#|----------------------12---%----12---|-12--------------------------|----------------------12---%----12---|
G#|-7-----7----5----7-------------------|-------7-----7-----7----5----|-7-----7----5----7-------------------|
D#|-0-----0---------0-------------------|-------0-----0-----0---------|-0-----0---------0-------------------|

D#|-----------------------------|-------------------------------------|-----------------------------|
A#|-----------------------------|-------------------------------------|-----------------------------|
F#|-12--------------------------|-------------------------------------|-----------------------------|
C#|-12--------------------------|-------------------------------------|-9-----9-----9----9----9-----|
G#|-------7-----7-----7----5----|-7-----7----5----7----7----7----0----|-9-----9-----9----9----9-----|
D#|-------0-----0-----0---------|-0-----0---------0----0----0---------|-7-----7-----7----7----7-----|

D#|-------------------------------------|---------------------------------|-------------------------------------|
A#|-------------------------------------|---------------------------------|-------------------------------------|
F#|------------7----7----7----7----7----|---------------------------------|------------7----7----7----7----7----|
C#|-5-----5----7----7----7----7----7----|-9-----9-----9----9----9----9----|-5-----5----7----7----7----7----7----|
G#|-5-----5----5----5----5----5----5----|-9-----9-----9----9----9----9----|-5-----5----5----5----5----5----5----|
D#|-3-----3-----------------------------|-7-----7-----7----7----7----7----|-3-----3-----------------------------|

D#|-----------------------------|---------------------------------|--------------------|
A#|-----------------------------|---------------------------------|--------------------|
F#|-----------------------------|------------7----7----7----7-----|-9-----%-----%------|
C#|-9-----9-----9----9----9-----|-5-----5----7----7----7----7-----|-9-----%-----%------|
G#|-9-----9-----9----9----9-----|-5-----5----5----5----5----5-----|-7------------------|
D#|-7-----7-----7----7----7-----|-3-----3-------------------------|--------------------|

D#|----------------------------|-----------------------------|-------------------------|
A#|----------------------------|-----------------------------|-------------------------|
F#|-%------%-------------------|-----------------------------|-------------------------|
C#|-%------%-------------------|-9-----9-----9-----9----9----|-7-----7-----7-----7-----|
G#|----------------------------|-9-----9-----9-----9----9----|-7-----7-----7-----7-----|
D#|-------------X----5----6----|-7-----7-----7-----7----7----|-5-----5-----5-----5-----|

D#|-------------------------|-------------------------------------|---------------------------------|
A#|-------------------------|-------------------------------------|---------------------------------|
F#|-2-----------------------|----------------------2----%----2----|-2-------------------------------|
C#|-2-----4-----4-----4-----|-4-----4---------4----2----%----2----|-2-----4---------4-----4---------|
G#|-0-----4-----4-----4-----|-4-----4---------4----0---------0----|-0-----4---------4-----4---------|
D#|-------2-----2-----2-----|-2-----2----0----2-------------------|-------2----0----2-----2----0----|

D#|-------------------------------------|---------------------------------|-------------------------------------|
A#|-------------------------------------|---------------------------------|-------------------------------------|
F#|----------------------2----%----2----|-2-------------------------------|----------------------2----%----2----|
C#|-4-----4---------4----2----%----2----|-2-----4---------4-----4---------|-4-----4---------4----2----%----2----|
G#|-4-----4---------4----0---------0----|-0-----4---------4-----4---------|-4-----4---------4----0---------0----|
D#|-2-----2----0----2-------------------|-------2----0----2-----2----0----|-2-----2----0----2-------------------|

D#|---------------------------------|-------------------------------------|---------------------------------|
A#|---------------------------------|-------------------------------------|---------------------------------|
F#|-2-------------------------------|----------------------2----%----2----|-2-------------------------------|
C#|-2-----4---------4-----4---------|-4-----4---------4----2----%----2----|-2-----4---------4-----4---------|
G#|-0-----4---------4-----4---------|-4-----4---------4----0---------0----|-0-----4---------4-----4---------|
D#|-------2----0----2-----2----0----|-2-----2----0----2-------------------|-------2----0----2-----2----0----|

D#|-------------------------------------|-----------------------------|---------------------------------|
A#|-------------------------------------|-----------------------------|---------------------------------|
F#|-------------------------------------|-6-----6-----6----6----6-----|-2-----2----9----9----9----9-----|
C#|-4-----4---------4----4----4----4----|-6-----6-----6----6----6-----|-2-----2----9----9----9----9-----|
G#|-4-----4---------4----4----4----4----|-4-----4-----4----4----4-----|-0-----0----7----7----7----7-----|
D#|-2-----2----0----2----2----2----2----|-----------------------------|---------------------------------|

D#|-----------------------------|---------------------------------|-----------------------------|
A#|-----------------------------|---------------------------------|-----------------------------|
F#|-6-----6-----6----6----6-----|-2-----2----9----9----9----9-----|-6-----6-----6----6----6-----|
C#|-6-----6-----6----6----6-----|-2-----2----9----9----9----9-----|-6-----6-----6----6----6-----|
G#|-4-----4-----4----4----4-----|-0-----0----7----7----7----7-----|-4-----4-----4----4----4-----|
D#|-----------------------------|---------------------------------|-----------------------------|

D#|-------------------------------------|--------------------|----------------------------|
A#|-------------------------------------|--------------------|----------------------------|
F#|-2-----2----9----9----9----9----9----|-------%-----%------|-%------%-------------------|
C#|-2-----2----9----9----9----9----9----|-3-----%-----%------|-%------%-------------------|
G#|-0-----0----7----7----7----7----7----|-3------------------|----------------------------|
D#|-------------------------------------|-1------------------|-------------X----2----3----|

D#|---------------------------------|-----------------------------|-----------------------------|
A#|---------------------------------|-----------------------------|-----------------------------|
F#|-6----------6----6----6----------|-----------------------------|-----------------------------|
C#|-6-----8----6----6----6----8-----|-4-----6-----4-----4----4----|-4----4----------4-----------|
G#|-4-----4----4----4----4----4-----|-2-----2-----2-----2----2----|-4----4----6-----4-----6-----|
D#|---------------------------------|-----------------------------|-2----2----2-----2-----2-----|

D#|-------------------------------------|-------------------------|-------------------------------------|
A#|-------------------------------------|-------------------------|-------------------------------------|
F#|-------------------------------------|-2-----------------------|----------------------2----%----2----|
C#|-4-----------------------------------|-2-----4-----4-----4-----|-4-----4---------4----2----%----2----|
G#|-4----2----3----4----4-----X----X----|-0-----4-----4-----4-----|-4-----4---------4----0---------0----|
D#|-2-------------------------X----X----|-------2-----2-----2-----|-2-----2----0----2-------------------|

D#|---------------------------------|-------------------------------------|---------------------------------|
A#|---------------------------------|-------------------------------------|---------------------------------|
F#|-2-------------------------------|----------------------2----%----2----|-2-------------------------------|
C#|-2-----4---------4-----4---------|-4-----4---------4----2----%----2----|-2-----4---------4-----4---------|
G#|-0-----4---------4-----4---------|-4-----4---------4----0---------0----|-0-----4---------4-----4---------|
D#|-------2----0----2-----2----0----|-2-----2----0----2-------------------|-------2----0----2-----2----0----|

D#|-------------------------------------|---------------------------------|-------------------------------------|
A#|-------------------------------------|---------------------------------|-------------------------------------|
F#|----------------------2----%----2----|-2-------------------------------|----------------------2----%----2----|
C#|-4-----4---------4----2----%----2----|-2-----4---------4-----4---------|-4-----4---------4----2----%----2----|
G#|-4-----4---------4----0---------0----|-0-----4---------4-----4---------|-4-----4---------4----0---------0----|
D#|-2-----2----0----2-------------------|-------2----0----2-----2----0----|-2-----2----0----2-------------------|

D#|---------------------------------|-------------------------------------|---------------------------------|
A#|---------------------------------|-------------------------------------|---------------------------------|
F#|-2-------------------------------|----------------------2----%----2----|-2-------------------------------|
C#|-2-----4---------4-----4---------|-4-----4---------4----2----%----2----|-2-----4---------4-----4---------|
G#|-0-----4---------4-----4---------|-4-----4---------4----0---------0----|-0-----4---------4-----4---------|
D#|-------2----0----2-----2----0----|-2-----2----0----2-------------------|-------2----0----2-----2----0----|

D#|-------------------------------------|---------------------------------|-------------------------------------|
A#|-------------------------------------|---------------------------------|-------------------------------------|
F#|----------------------2----%----2----|-2-------------------------------|----------------------2----%----2----|
C#|-4-----4---------4----2----%----2----|-2-----4---------4-----4---------|-4-----4---------4----2----%----2----|
G#|-4-----4---------4----0---------0----|-0-----4---------4-----4---------|-4-----4---------4----0---------0----|
D#|-2-----2----0----2-------------------|-------2----0----2-----2----0----|-2-----2----0----2-------------------|

D#|---------------------------------|-------------------------------------|---------------------------------|
A#|---------------------------------|-------------------------------------|---------------------------------|
F#|-2-------------------------------|----------------------2----%----2----|-2-------------------------------|
C#|-2-----4---------4-----4---------|-4-----4---------4----2----%----2----|-2-----4---------4-----4---------|
G#|-0-----4---------4-----4---------|-4-----4---------4----0---------0----|-0-----4---------4-----4---------|
D#|-------2----0----2-----2----0----|-2-----2----0----2-------------------|-------2----0----2-----2----0----|

D#|-------------------------------------|---------------------------------|-------------------------------------|
A#|-------------------------------------|---------------------------------|-------------------------------------|
F#|----------------------2----%----2----|-2-------------------------------|----------------------2----%----2----|
C#|-4-----4---------4----2----%----2----|-2-----4---------4-----4---------|-4-----4---------4----2----%----2----|
G#|-4-----4---------4----0---------0----|-0-----4---------4-----4---------|-4-----4---------4----0---------0----|
D#|-2-----2----0----2-------------------|-------2----0----2-----2----0----|-2-----2----0----2-------------------|

D#|---------------------------------|-------------------------------------|---------------------------------|
A#|---------------------------------|-------------------------------------|---------------------------------|
F#|-2-------------------------------|----------------------2----%----2----|-2-------------------------------|
C#|-2-----4---------4-----4---------|-4-----4---------4----2----%----2----|-2-----4---------4-----4---------|
G#|-0-----4---------4-----4---------|-4-----4---------4----0---------0----|-0-----4---------4-----4---------|
D#|-------2----0----2-----2----0----|-2-----2----0----2-------------------|-------2----0----2-----2----0----|

D#|-------------------------------------|-----------------------------|---------------------------------|
A#|-------------------------------------|-----------------------------|---------------------------------|
F#|-------------------------------------|-6-----6-----6----6----6-----|-2-----2----9----9----9----9-----|
C#|-4-----4---------4----4----4----4----|-6-----6-----6----6----6-----|-2-----2----9----9----9----9-----|
G#|-4-----4---------4----4----4----4----|-4-----4-----4----4----4-----|-0-----0----7----7----7----7-----|
D#|-2-----2----0----2----2----2----2----|-----------------------------|---------------------------------|

D#|-----------------------------|---------------------------------|-----------------------------|
A#|-----------------------------|---------------------------------|-----------------------------|
F#|-6-----6-----6----6----6-----|-2-----2----9----9----9----9-----|-6-----6-----6----6----6-----|
C#|-6-----6-----6----6----6-----|-2-----2----9----9----9----9-----|-6-----6-----6----6----6-----|
G#|-4-----4-----4----4----4-----|-0-----0----7----7----7----7-----|-4-----4-----4----4----4-----|
D#|-----------------------------|---------------------------------|-----------------------------|

D#|-------------------------------------|--------------------|----------------------------|
A#|-------------------------------------|--------------------|----------------------------|
F#|-2-----2----9----9----9----9----9----|-------%-----%------|-%------%-------------------|
C#|-2-----2----9----9----9----9----9----|-3-----%-----%------|-%------%-------------------|
G#|-0-----0----7----7----7----7----7----|-3------------------|----------------------------|
D#|-------------------------------------|-1------------------|-------------X----2----3----|

D#|---------------------------------|-----------------------------|-----------------------------|
A#|---------------------------------|-----------------------------|-----------------------------|
F#|-6----------6----6----6----------|-----------------------------|-----------------------------|
C#|-6-----8----6----6----6----8-----|-4-----6-----4-----4----4----|-4----4----------4-----------|
G#|-4-----4----4----4----4----4-----|-2-----2-----2-----2----2----|-4----4----6-----4-----6-----|
D#|---------------------------------|-----------------------------|-2----2----2-----2-----2-----|

D#|-------------------------------------|----------------------------------------|----------------------------------------------------------------|
A#|-------------------------------------|----------------------------------------|----------------------------------------------------------------|
F#|-------------------------------------|----------------------------------------|-------------------------------------------------4----4----2----|
C#|-4-----------------------------------|-4------4---4---4---4---4---4---4---4---|-4---4---4---4---4---4---4---4---4---4---4---4------------------|
G#|-4----2----3----4----4-----X----X----|-4------4---4---4---4---4---4---4---4---|-4---4---4---4---4---4---4---4---4---4---4---4------------------|
D#|-2-------------------------X----X----|-2------2---2---2---2---2---2---2---2---|-2---2---2---2---2---2---2---2---2---2---2---2------------------|

D#|--------------------------------------|---------------------------------|-2---2---2---2---2---2---2---2---2------|
A#|-----------2--------------------------|------------------2---------2----|-2---2---2---2---2---2---2---2---2------|
F#|-----------------------2---------2----|-5--------------------------3----|-3---3---3---3---3---3---3---3---3------|
C#|-4--------------------------4---------|-------4-------------------------|-4---4---4---4---4---4---4---4---4------|
G#|--------------------------------------|---------------------------------|-4---4---4---4---4---4---4---4---4------|
D#|------2----------2--------------------|-------------2---------2---------|-2---2---2---2---2---2---2---2---2------|

D#|-2-----2------------|
A#|-2-----2------------|
F#|-3-----3-----%------|
C#|-4-----4-----%------|
G#|-4-----4------------|
D#|-2-----2------------|
Metallica - Damage Case
Metallica - Damage Case.gp3