Metallica - Devil_'s Dance (2)

Metallica - Devil_'s Dance (2)

Metallica



Title: Devil's Dance
Album: ReLoad
Artist: Metallica
Author: 

Track 1: Guitar 1
D|---------|---------|---------|---------|--------------------X---|---------------------------------X---|
A|---------|---------|---------|---------|--------------------X---|---------------------------------X---|
F|-%-------|-%-------|-%-------|-%-------|-%------%-----%---------|-----%------%--%----%------%---------|
C|-%-------|-%-------|-%-------|-%-------|-%------%-----%---------|-----%------%--%----%------%---------|
G|---------|---------|---------|---------|------------------------|-------------------------------------|
D|---------|---------|---------|---------|------------------------|-0------0----------------------------|

D|-----------------------------------------------|---------------------------------X---|
A|-----------------------------------------------|---------------------------------X---|
F|-----%------%------%------%--------------------|-----%------%--%------%-----%--------|
C|-----%------%------%------%--------------------|-----%------%--%------%-----%--------|
G|-----------------------------7-----7------7----|-------------------------------------|
D|-0------0------0------0------5-----5------5----|-0------0----------------------------|

D|------------------------------------------X---|--------------------------------------------------------------------------------------------------|
A|------------------------------------------X---|--------------------------------------------------------------------------------------------------|
F|-----%------%------%------%--%------%---------|-----%------%------%------%--%-------%------%---%------%------%---%------%------%---%------%---%--|
C|-----%------%------%------%--%------%---------|-----%------%------%------%--%-------%------%---%------%------%---%------%------%---%------%---%--|
G|----------------------------------------------|--------------------------------------------------------------------------------------------------|
D|-0------0------0------0-----------------------|-0------0------0------0----------0------0----------0------0----------0------0----------0----------|

D|--------------------------------------------------------------------------------------------------|
A|--------------------------------------------------------------------------------------------------|
F|-----%------%------%------%--%-------%------%---%------%------%---%------%------%---%------%------|
C|-----%------%------%------%--%-------%------%---%------%------%---%------%------%---%------%------|
G|--------------------------------------------------------------------------------------------------|
D|-0------0------0------0----------0------0----------0------0----------0------0----------0------X---|

D|--------------------------------------------------------------------------------------------------|
A|--------------------------------------------------------------------------------------------------|
F|-----%------%------%------%--%-------%------%---%------%------%---%------%------%---%------%---%--|
C|-----%------%------%------%--%-------%------%---%------%------%---%------%------%---%------%---%--|
G|--------------------------------------------------------------------------------------------------|
D|-0------0------0------0----------0------0----------0------0----------0------0----------0----------|

D|--------------------------------------------------------------------------------------------------|
A|--------------------------------------------------------------------------------------------------|
F|-----%------%------%------%--%-------%------%---%------%------%---%------%------%---%------%------|
C|-----%------%------%------%--%-------%------%---%------%------%---%------%------%---%------%------|
G|--------------------------------------------------------------------------------------------------|
D|-0------0------0------0----------0------0----------0------0----------0------0----------0------X---|

D|--------------------------------------------------------------------------------------------------|
A|--------------------------------------------------------------------------------------------------|
F|-----%------%------%------%--%-------%------%---%------%------%---%------%------%---%------%---%--|
C|-----%------%------%------%--%-------%------%---%------%------%---%------%------%---%------%---%--|
G|--------------------------------------------------------------------------------------------------|
D|-0------0------0------0----------0------0----------0------0----------0------0----------0----------|

D|--------------------------------------------------------------------------------------------------|
A|--------------------------------------------------------------------------------------------------|
F|-----%------%------%------%--%-------%------%---%------%------%---%------%------%---%------%------|
C|-----%------%------%------%--%-------%------%---%------%------%---%------%------%---%------%------|
G|--------------------------------------------------------------------------------------------------|
D|-0------0------0------0----------0------0----------0------0----------0------0----------0------X---|

D|--------------------------------------------------------------------------------------------------|
A|--------------------------------------------------------------------------------------------------|
F|-----%------%------%------%--%-------%------%---%------%------%---%------%------%---%------%---%--|
C|-----%------%------%------%--%-------%------%---%------%------%---%------%------%---%------%---%--|
G|--------------------------------------------------------------------------------------------------|
D|-0------0------0------0----------0------0----------0------0----------0------0----------0----------|

D|--------------------------------------------------------------------------------------------------|
A|--------------------------------------------------------------------------------------------------|
F|-----%------%------%------%--%-------%------%---%------%------%---%------%------%---%------%------|
C|-----%------%------%------%--%-------%------%---%------%------%---%------%------%---%------%------|
G|--------------------------------------------------------------------------------------------------|
D|-0------0------0------0----------0------0----------0------0----------0------0----------0------X---|

D|--------------------------------------------------------------------------------------------------|
A|--------------------------------------------------------------------------------------------------|
F|-----%------%------%------%--%-------%------%---%------%------%---%------%------%---%------%---%--|
C|-----%------%------%------%--%-------%------%---%------%------%---%------%------%---%------%---%--|
G|--------------------------------------------------------------------------------------------------|
D|-0------0------0------0----------0------0----------0------0----------0------0----------0----------|

D|---------------|---------|---------|---------------|---------|---------|---------|
A|---------------|---------|---------|---------------|---------|---------|---------|
F|---------------|---------|---------|--------%------|-%-------|-%-------|-%-------|
C|---------------|---------|---------|--------%------|-%-------|-%-------|-%-------|
G|-------7-------|-7-------|-7-------|-7-------------|---------|---------|---------|
D|-0-----0-------|-0-------|-0-------|-0-------------|---------|---------|---------|

D|-------------------|---------------------------------|---------------------------------|
A|-------------------|---------------------------------|---------------------------------|
F|-%-------%----9----|-9-----%----9----9-----%----9----|-9-----%----9----9-----%----9----|
C|-%-------%----8----|-8-----%----7----7-----%----8----|-8-----%----7----7-----%----8----|
G|--------------7----|-7----------7----7----------7----|-7----------7----7----------7----|
D|-------------------|---------------------------------|---------------------------------|

D|---------------------------------|------------------------------------------|--------------------------------------------------------------------------|
A|---------------------------------|------------------------------------------|--------------------------------------------------------------------------|
F|-9-----%----9----9-----%----9----|-9-----%----9----9--------%------%--------|-----%------%------%---------%-------%----------------%-------%-------%---|
C|-8-----%----7----7-----%----8----|-8-----%----7----7--------%------%--------|-----%------%------%---------%-------%----------------%-------%-------%---|
G|-7----------7----7----------7----|-7----------7----7------------------X-----|----------------------------------------5----5----------------------------|
D|---------------------------------|----------------------0------0------X-----|-0------0------0------0---0------0------3----3----0-------0-------0-------|

D|--------------------------------------------------------------------------|--------------------------------------------------------------------------|
A|--------------------------------------------------------------------------|--------------------------------------------------------------------------|
F|-----%------%------%---------%-------%----------------%-------%-------%---|-----%------%------%---------%-------%----------------%-------%-------%---|
C|-----%------%------%---------%-------%----------------%-------%-------%---|-----%------%------%---------%-------%----------------%-------%-------%---|
G|----------------------------------------5----5----------------------------|----------------------------------------5----5----------------------------|
D|-0------0------0------0---0------0------3----3----0-------0-------0-------|-0------0------0------0---0------0------3----3----0-------0-------0-------|

D|--------------------------------------------------------------------|-------------------------------------------------------------------------------------|
A|--------------------------------------------------------------------|-------------------------------------------------------------------------------------|
F|-----%------%------%---------%-------%------------------------------|-----%------%------%---------%------%-------%------%-------%------%------%-------%---|
C|-----%------%------%---------%-------%------------------------------|-----%------%------%---------%------%-------%------%-------%------%------%-------%---|
G|----------------------------------------5----5----------------------|-5------5------5------5---5-----5------5-------5------5-------5------5-------5-------|
D|-0------0------0------0---0------0------3----3---0---5----5----3----|-3------3------3------3---3-----3------3-------3------3-------3------3-------3-------|

D|----------------------------------------------------------------------------|--------------------------------------------------------------------------|
A|----------------------------------------------------------------------------|--------------------------------------------------------------------------|
F|-----%------%------%---------%------%-------%------%------%-----------------|-----%------%------%---------%-------%----------------%-------%-------%---|
C|-----%------%------%---------%------%-------%------%------%-----------------|-----%------%------%---------%-------%----------------%-------%-------%---|
G|-5------5------5------5---5-----5------5-------5------5---------------------|----------------------------------------5----5----------------------------|
D|-3------3------3------3---3-----3------3-------3------3------5----5----3----|-0------0------0------0---0------0------3----3----0-------0-------0-------|

D|--------------------------------------------------------------------|-------------------------------------------------------------------------------------|
A|--------------------------------------------------------------------|-------------------------------------------------------------------------------------|
F|-----%------%------%---------%-------%------------------------------|-----%------%------%---------%------%-------%------%-------%------%------%-------%---|
C|-----%------%------%---------%-------%------------------------------|-----%------%------%---------%------%-------%------%-------%------%------%-------%---|
G|----------------------------------------5----5----------------------|-5------5------5------5---5-----5------5-------5------5-------5------5-------5-------|
D|-0------0------0------0---0------0------3----3---0---5----5----3----|-3------3------3------3---3-----3------3-------3------3-------3------3-------3-------|

D|-------------------------------------------------------------------|---------------------------------|
A|-------------------------------------------------------------------|---------------------------------|
F|-----%------%------%---------%------%------%-----------------------|---------------------------------|
C|-----%------%------%---------%------%------%-----------------------|---------------------------------|
G|-4------4------4------4---4-----4------4-------4----4----7---------|-------7---------------7---------|
D|-2------2------2------2---2-----2------2-------2----2---------6----|-6----------5----5----------6----|

D|-------------------------------------|--------------------------------------------------------------------|
A|-------------------------------------|--------------------------------------------------------------------|
F|-------------------------------------|----------%------%-----------%------%-----------%------%------------|
C|-------------------------------------|----------%------%-----------%------%-----------%------%------------|
G|-------7-----------------------------|--------------------------------------------------------------------|
D|-6----------5----3----0----3----0----|-6----6------6------6----6------6------6----6------6------5----3----|

D|-------------------------------------------|--------------------------------------------------------------------|
A|-------------------------------------------|--------------------------------------------------------------------|
F|-----%-------%--------%--------------------|----------%------%-----------%------%-----------%------%------------|
C|-----%-------%--------%--------------------|----------%------%-----------%------%-----------%------%------------|
G|-----------------5---------5---------------|--------------------------------------------------------------------|
D|-0-------0-------3---------3-----0----3----|-6----6------6------6----6------6------6----6------6------5----3----|

D|-------------------------------------------|--------------------------------------------------------------------|
A|-------------------------------------------|--------------------------------------------------------------------|
F|-----%-------%--------%--------------------|----------%------%-----------%------%-----------%------%------------|
C|-----%-------%--------%--------------------|----------%------%-----------%------%-----------%------%------------|
G|-----------------5---------5---------------|--------------------------------------------------------------------|
D|-0-------0-------3---------3-----0----3----|-6----6------6------6----6------6------6----6------6------5----3----|

D|-------------------------------------------|----------------------------|---------------------------------|
A|-------------------------------------------|----------------------------|---------------------------------|
F|-----%-------%--------%--------------------|------%----%----------------|---------------------------------|
C|-----%-------%--------%--------------------|------%----%----------------|---------------------------------|
G|-----------------5---------5---------------|------------------7---------|-------7---------------7---------|
D|-0-------0-------3---------3-----0----3----|-6---------------------6----|-6----------5----5----------6----|

D|-------------------------------------|---------------------------------|-------------------------------------|
A|-------------------------------------|---------------------------------|-------------------------------------|
F|-------------------------------------|---------------------------------|-------------------------------------|
C|-------------------------------------|---------------------------------|-------------------------------------|
G|-------7-------------------7---------|-------7---------------7---------|-------7-----------------------------|
D|-6----------5----3----0---------6----|-6----------5----5----------6----|-6----------5----3----0----3----0----|

D|--------------------------------------------------------------------------|--------------------------------------------------------------------------|
A|--------------------------------------------------------------------------|--------------------------------------------------------------------------|
F|-----%------%------%---------%-------%----------------%-------%-------%---|-----%------%------%---------%-------%----------------%-------%-------%---|
C|-----%------%------%---------%-------%----------------%-------%-------%---|-----%------%------%---------%-------%----------------%-------%-------%---|
G|----------------------------------------5----5----------------------------|----------------------------------------5----5----------------------------|
D|-0------0------0------0---0------0------3----3----0-------0-------0-------|-0------0------0------0---0------0------3----3----0-------0-------0-------|

D|--------------------------------------------------------------------------|--------------------------------------------------------------------|
A|--------------------------------------------------------------------------|--------------------------------------------------------------------|
F|-----%------%------%---------%-------%----------------%-------%-------%---|-----%------%------%---------%-------%------------------------------|
C|-----%------%------%---------%-------%----------------%-------%-------%---|-----%------%------%---------%-------%------------------------------|
G|----------------------------------------5----5----------------------------|----------------------------------------5----5----------------------|
D|-0------0------0------0---0------0------3----3----0-------0-------0-------|-0------0------0------0---0------0------3----3---0---5----5----3----|

D|-------------------------------------------------------------------------------------|
A|-------------------------------------------------------------------------------------|
F|-----%------%------%---------%------%-------%------%-------%------%------%-------%---|
C|-----%------%------%---------%------%-------%------%-------%------%------%-------%---|
G|-5------5------5------5---5-----5------5-------5------5-------5------5-------5-------|
D|-3------3------3------3---3-----3------3-------3------3-------3------3-------3-------|

D|----------------------------------------------------------------------------|--------------------------------------------------------------------------|
A|----------------------------------------------------------------------------|--------------------------------------------------------------------------|
F|-----%------%------%---------%------%-------%------%------%-----------------|-----%------%------%---------%-------%----------------%-------%-------%---|
C|-----%------%------%---------%------%-------%------%------%-----------------|-----%------%------%---------%-------%----------------%-------%-------%---|
G|-5------5------5------5---5-----5------5-------5------5---------------------|----------------------------------------5----5----------------------------|
D|-3------3------3------3---3-----3------3-------3------3------5----5----3----|-0------0------0------0---0------0------3----3----0-------0-------0-------|

D|--------------------------------------------------------------------|-------------------------------------------------------------------------------------|
A|--------------------------------------------------------------------|-------------------------------------------------------------------------------------|
F|-----%------%------%---------%-------%------------------------------|-----%------%------%---------%------%-------%------%-------%------%------%-------%---|
C|-----%------%------%---------%-------%------------------------------|-----%------%------%---------%------%-------%------%-------%------%------%-------%---|
G|----------------------------------------5----5----------------------|-5------5------5------5---5-----5------5-------5------5-------5------5-------5-------|
D|-0------0------0------0---0------0------3----3---0---5----5----3----|-3------3------3------3---3-----3------3-------3------3-------3------3-------3-------|

D|-------------------------------------------------------------------|---------------------------------|
A|-------------------------------------------------------------------|---------------------------------|
F|-----%------%------%---------%------%------%-----------------------|---------------------------------|
C|-----%------%------%---------%------%------%-----------------------|---------------------------------|
G|-4------4------4------4---4-----4------4-------4----4----7---------|-------7---------------7---------|
D|-2------2------2------2---2-----2------2-------2----2---------6----|-6----------5----5----------6----|

D|-------------------------------------|--------------------------------------------------------------------|
A|-------------------------------------|--------------------------------------------------------------------|
F|-------------------------------------|----------%------%-----------%------%-----------%------%------------|
C|-------------------------------------|----------%------%-----------%------%-----------%------%------------|
G|-------7-----------------------------|--------------------------------------------------------------------|
D|-6----------5----3----0----3----0----|-6----6------6------6----6------6------6----6------6------5----3----|

D|-------------------------------------------|--------------------------------------------------------------------|
A|-------------------------------------------|--------------------------------------------------------------------|
F|-----%-------%--------%--------------------|----------%------%-----------%------%-----------%------%------------|
C|-----%-------%--------%--------------------|----------%------%-----------%------%-----------%------%------------|
G|-----------------5---------5---------------|--------------------------------------------------------------------|
D|-0-------0-------3---------3-----0----3----|-6----6------6------6----6------6------6----6------6------5----3----|

D|-------------------------------------------|--------------------------------------------------------------------|
A|-------------------------------------------|--------------------------------------------------------------------|
F|-----%-------%--------%--------------------|----------%------%-----------%------%-----------%------%------------|
C|-----%-------%--------%--------------------|----------%------%-----------%------%-----------%------%------------|
G|-----------------5---------5---------------|--------------------------------------------------------------------|
D|-0-------0-------3---------3-----0----3----|-6----6------6------6----6------6------6----6------6------5----3----|

D|-------------------------------------------|-------------------|--------------------------------------------------------------------------------------------------|
A|-------------------------------------------|-------------------|--------------------------------------------------------------------------------------------------|
F|-----%-------%--------%--------------------|------%----%-------|-----%------%------%------%--%-------%------%---%------%------%---%------%------%---%------%---%--|
C|-----%-------%--------%--------------------|------%----%-------|-----%------%------%------%--%-------%------%---%------%------%---%------%------%---%------%---%--|
G|-----------------5---------5---------------|-------------------|--------------------------------------------------------------------------------------------------|
D|-0-------0-------3---------3-----0----3----|-6-----------------|-0------0------0------0----------0------0----------0------0----------0------0----------0----------|

D|--------------------------------------------------------------------------------------------------|
A|--------------------------------------------------------------------------------------------------|
F|-----%------%------%------%--%-------%------%---%------%------%---%------%------%---%------%------|
C|-----%------%------%------%--%-------%------%---%------%------%---%------%------%---%------%------|
G|--------------------------------------------------------------------------------------------------|
D|-0------0------0------0----------0------0----------0------0----------0------0----------0------X---|

D|--------------------------------------------------------------------------------------------------|
A|--------------------------------------------------------------------------------------------------|
F|-----%------%------%------%--%-------%------%---%------%------%---%------%------%---%------%---%--|
C|-----%------%------%------%--%-------%------%---%------%------%---%------%------%---%------%---%--|
G|--------------------------------------------------------------------------------------------------|
D|-0------0------0------0----------0------0----------0------0----------0------0----------0----------|

D|--------------------------------------------------------------------------------------------------|
A|--------------------------------------------------------------------------------------------------|
F|-----%------%------%------%--%-------%------%---%------%------%---%------%------%---%------%------|
C|-----%------%------%------%--%-------%------%---%------%------%---%------%------%---%------%------|
G|--------------------------------------------------------------------------------------------------|
D|-0------0------0------0----------0------0----------0------0----------0------0----------0------X---|

D|-----------------------------------------------------------------------------------|
A|-----------------------------------------------------------------------------------|
F|-----%------%------%----------%------%------%-------%------%-------%------%--------|
C|-----%------%------%----------%------%------%-------%------%-------%------%--------|
G|-5------5------5------5---5------5------5-------5------5-------5------5-------5----|
D|-3------3------3------3---3------3------3-------3------3-------3------3-------3----|

D|-----------------------------------------------------------------------------------|
A|-----------------------------------------------------------------------------------|
F|-----%------%------%----------%------%------%-------%------%-------%------%--------|
C|-----%------%------%----------%------%------%-------%------%-------%------%--------|
G|-5------5------5------5---5------5------5-------5------5-------5------5-------5----|
D|-3------3------3------3---3------3------3-------3------3-------3------3-------3----|

D|-----------------------------------------------------------------------------------|
A|-----------------------------------------------------------------------------------|
F|-----%------%------%----------%------%------%-------%------%-------%------%--------|
C|-----%------%------%----------%------%------%-------%------%-------%------%--------|
G|-5------5------5------5---5------5------5-------5------5-------5------5-------5----|
D|-3------3------3------3---3------3------3-------3------3-------3------3-------3----|

D|-----------------------------------------------------------------------------------|
A|-----------------------------------------------------------------------------------|
F|-----%------%------%----------%------%------%-------%------%-------%------%--------|
C|-----%------%------%----------%------%------%-------%------%-------%------%--------|
G|-5------5------5------5---5------5------5-------5------5-------5------5-------5----|
D|-3------3------3------3---3------3------3-------3------3-------3------3-------3----|

D|--------------------------------------------------------------------------|--------------------------------------------------------------------------|
A|--------------------------------------------------------------------------|--------------------------------------------------------------------------|
F|-----%------%------%---------%-------%----------------%-------%-------%---|-----%------%------%---------%-------%----------------%-------%-------%---|
C|-----%------%------%---------%-------%----------------%-------%-------%---|-----%------%------%---------%-------%----------------%-------%-------%---|
G|----------------------------------------5----5----------------------------|----------------------------------------5----5----------------------------|
D|-0------0------0------0---0------0------3----3----0-------0-------0-------|-0------0------0------0---0------0------3----3----0-------0-------0-------|

D|--------------------------------------------------------------------------|--------------------------------------------------------------------------|
A|--------------------------------------------------------------------------|--------------------------------------------------------------------------|
F|-----%------%------%---------%-------%----------------%-------%-------%---|-----%------%------%---------%-------%----------------%-------%-------%---|
C|-----%------%------%---------%-------%----------------%-------%-------%---|-----%------%------%---------%-------%----------------%-------%-------%---|
G|----------------------------------------5----5----------------------------|----------------------------------------5----5----------------------------|
D|-0------0------0------0---0------0------3----3----0-------0-------0-------|-0------0------0------0---0------0------3----3----0-------0-------0-------|

D|--------------------------------------------------------------------|-------------------------------------------|
A|--------------------------------------------------------------------|-------------------------------------------|
F|----------%------%-----------%------%-----------%------%------------|-----%-------%--------%--------------------|
C|----------%------%-----------%------%-----------%------%------------|-----%-------%--------%--------------------|
G|--------------------------------------------------------------------|-----------------5---------5---------------|
D|-6----6------6------6----6------6------6----6------6------5----3----|-0-------0-------3---------3-----0----3----|

D|--------------------------------------------------------------------|-------------------------------------------|
A|--------------------------------------------------------------------|-------------------------------------------|
F|----------%------%-----------%------%-----------%------%------------|-----%-------%--------%--------------------|
C|----------%------%-----------%------%-----------%------%------------|-----%-------%--------%--------------------|
G|--------------------------------------------------------------------|-----------------5---------5---------------|
D|-6----6------6------6----6------6------6----6------6------5----3----|-0-------0-------3---------3-----0----3----|

D|--------------------------------------------------------------------|-------------------------------------------|
A|--------------------------------------------------------------------|-------------------------------------------|
F|----------%------%-----------%------%-----------%------%------------|-----%-------%--------%--------------------|
C|----------%------%-----------%------%-----------%------%------------|-----%-------%--------%--------------------|
G|--------------------------------------------------------------------|-----------------5---------5---------------|
D|-6----6------6------6----6------6------6----6------6------5----3----|-0-------0-------3---------3-----0----3----|

D|----------------------------|-------13---------------|------------------------|------------------------|
A|----------------------------|------------------------|------------------------|------------------------|
F|------%----%----------------|------------------------|--------14--------------|--------15--------------|
C|------%----%----------------|------------------------|------------------------|------------------------|
G|-7----------------7---------|--------------7---------|--------------7---------|--------------7---------|
D|-5---------------------6----|-6-----6-----------5----|-5------5----------6----|-6------6----------5----|

D|------------------------|---------------------------------|-------------------------------------|
A|------------------------|---------------------------------|-------------------------------------|
F|--------14--------------|---------------------------------|-------------------------------------|
C|------------------------|---------------------------------|-------------------------------------|
G|--------------7---------|-------7---------------7---------|-------7-------------------7---------|
D|-5------5----------6----|-6----------5----5----------6----|-6----------5----3----0---------6----|

D|---------------------------------|------------------------------------|--------------------------------------------------------------------------|
A|---------------------------------|------------------------------------|--------------------------------------------------------------------------|
F|---------------------------------|------%----%-------------%----%-----|-----%------%------%---------%-------%----------------%-------%-------%---|
C|---------------------------------|------%----%-------------%----%-----|-----%------%------%---------%-------%----------------%-------%-------%---|
G|-------7---------------7---------|-8---------------7---7--------------|----------------------------------------5----5----------------------------|
D|-6----------5----5----------6----|-6---------------5---5--------------|-0------0------0------0---0------0------3----3----0-------0-------0-------|

D|--------------------------------------------------------------------------|--------------------------------------------------------------------------|
A|--------------------------------------------------------------------------|--------------------------------------------------------------------------|
F|-----%------%------%---------%-------%----------------%-------%-------%---|-----%------%------%---------%-------%----------------%-------%-------%---|
C|-----%------%------%---------%-------%----------------%-------%-------%---|-----%------%------%---------%-------%----------------%-------%-------%---|
G|----------------------------------------5----5----------------------------|----------------------------------------5----5----------------------------|
D|-0------0------0------0---0------0------3----3----0-------0-------0-------|-0------0------0------0---0------0------3----3----0-------0-------0-------|

D|--------------------------------------------------------------------|-------------------------------------------------------------------------------------|
A|--------------------------------------------------------------------|-------------------------------------------------------------------------------------|
F|-----%------%------%---------%-------%------------------------------|-----%------%------%---------%------%-------%------%-------%------%------%-------%---|
C|-----%------%------%---------%-------%------------------------------|-----%------%------%---------%------%-------%------%-------%------%------%-------%---|
G|----------------------------------------5----5----------------------|-5------5------5------5---5-----5------5-------5------5-------5------5-------5-------|
D|-0------0------0------0---0------0------3----3---0---5----5----3----|-3------3------3------3---3-----3------3-------3------3-------3------3-------3-------|

D|----------------------------------------------------------------------------|--------------------------------------------------------------------------|
A|----------------------------------------------------------------------------|--------------------------------------------------------------------------|
F|-----%------%------%---------%------%-------%------%------%-----------------|-----%------%------%---------%-------%----------------%-------%-------%---|
C|-----%------%------%---------%------%-------%------%------%-----------------|-----%------%------%---------%-------%----------------%-------%-------%---|
G|-5------5------5------5---5-----5------5-------5------5---------------------|----------------------------------------5----5----------------------------|
D|-3------3------3------3---3-----3------3-------3------3------5----5----3----|-0------0------0------0---0------0------3----3----0-------0-------0-------|

D|--------------------------------------------------------------------|-------------------------------------------------------------------------------------|
A|--------------------------------------------------------------------|-------------------------------------------------------------------------------------|
F|-----%------%------%---------%-------%------------------------------|-----%------%------%---------%------%-------%------%-------%------%------%-------%---|
C|-----%------%------%---------%-------%------------------------------|-----%------%------%---------%------%-------%------%-------%------%------%-------%---|
G|----------------------------------------5----5----------------------|-5------5------5------5---5-----5------5-------5------5-------5------5-------5-------|
D|-0------0------0------0---0------0------3----3---0---5----5----3----|-3------3------3------3---3-----3------3-------3------3-------3------3-------3-------|

D|-------------------------------------------------------------------|---------------------------------|
A|-------------------------------------------------------------------|---------------------------------|
F|-----%------%------%---------%------%------%-----------------------|---------------------------------|
C|-----%------%------%---------%------%------%-----------------------|---------------------------------|
G|-4------4------4------4---4-----4------4-------4----4----7---------|-------7---------------7---------|
D|-2------2------2------2---2-----2------2-------2----2---------6----|-6----------5----5----------6----|

D|-------------------------------------|--------------------------------------------------------------------|
A|-------------------------------------|--------------------------------------------------------------------|
F|-------------------------------------|----------%------%-----------%------%-----------%------%------------|
C|-------------------------------------|----------%------%-----------%------%-----------%------%------------|
G|-------7-----------------------------|--------------------------------------------------------------------|
D|-6----------5----3----0----3----0----|-6----6------6------6----6------6------6----6------6------5----3----|

D|-------------------------------------------|--------------------------------------------------------------------|
A|-------------------------------------------|--------------------------------------------------------------------|
F|-----%-------%--------%--------------------|----------%------%-----------%------%-----------%------%------------|
C|-----%-------%--------%--------------------|----------%------%-----------%------%-----------%------%------------|
G|-----------------5---------5---------------|--------------------------------------------------------------------|
D|-0-------0-------3---------3-----0----3----|-6----6------6------6----6------6------6----6------6------5----3----|

D|-------------------------------------------|--------------------------------------------------------------------|
A|-------------------------------------------|--------------------------------------------------------------------|
F|-----%-------%--------%--------------------|----------%------%-----------%------%-----------%------%------------|
C|-----%-------%--------%--------------------|----------%------%-----------%------%-----------%------%------------|
G|-----------------5---------5---------------|--------------------------------------------------------------------|
D|-0-------0-------3---------3-----0----3----|-6----6------6------6----6------6------6----6------6------5----3----|

D|-------------------------------------------|----------------------------|---------------------------------|
A|-------------------------------------------|----------------------------|---------------------------------|
F|-----%-------%--------%--------------------|------%----%----------------|---------------------------------|
C|-----%-------%--------%--------------------|------%----%----------------|---------------------------------|
G|-----------------5---------5---------------|------------------7---------|-------7---------------7---------|
D|-0-------0-------3---------3-----0----3----|-6---------------------6----|-6----------5----5----------6----|

D|-------------------------------------|--------------------------------------------------------------------|
A|-------------------------------------|--------------------------------------------------------------------|
F|-------------------------------------|----------%------%-----------%------%-----------%------%------------|
C|-------------------------------------|----------%------%-----------%------%-----------%------%------------|
G|-------7-----------------------------|--------------------------------------------------------------------|
D|-6----------5----3----0----3----0----|-6----6------6------6----6------6------6----6------6------5----3----|

D|-------------------------------------------|-------------------|
A|-------------------------------------------|-------------------|
F|-----%-------%--------%--------------------|------%----%-------|
C|-----%-------%--------%--------------------|-5----%----%-------|
G|-----------------5---------5---------------|-------------------|
D|-0-------0-------3---------3-----0----3----|-6-----------------|
Metallica - Devil_'s Dance (2)
Metallica - Devil_'s Dance (2).gp3