Metallica - Die, Die My Darling

Metallica



Title: Die, Die My Darling
Album: 
Artist: 
Author: Metallica

Track 1: Guitar 1
D#|---------|---------|-----------------------------------------|-------------------------------------|
A#|---------|---------|-4---------4---------4---------4---------|-4---------4---------4---------4-----|
F#|-%-------|-%-------|-4----%----4----%----4----%----4----%----|-4----%----4----%----4----%----4-----|
C#|-%-------|-%-------|-4----%----4----%----4----%----4----%----|-4----%----4----%----4----%----4-----|
G#|---------|---------|-2---------2---------2---------2---------|-2---------2---------2---------2-----|
D#|---------|---------|-----------------------------------------|-------------------------------------|

D#|---------|---------|-----------------------------------------|-------------------------------------|
A#|---------|---------|-4---------4---------4---------4---------|-4---------4---------4---------4-----|
F#|-4-------|-3-------|-4----%----4----%----4----%----4----%----|-4----%----4----%----4----%----4-----|
C#|-5-------|-4-------|-4----%----4----%----4----%----4----%----|-4----%----4----%----4----%----4-----|
G#|-5-------|-4-------|-2---------2---------2---------2---------|-2---------2---------2---------2-----|
D#|-3-------|-2-------|-----------------------------------------|-------------------------------------|

D#|---------|---------|-----------------------------------------|-------------------------------------|
A#|---------|---------|-4---------4---------4---------4---------|-4---------4---------4---------4-----|
F#|-4-------|-3-------|-4----%----4----%----4----%----4----%----|-4----%----4----%----4----%----4-----|
C#|-5-------|-4-------|-4----%----4----%----4----%----4----%----|-4----%----4----%----4----%----4-----|
G#|-5-------|-4-------|-2---------2---------2---------2---------|-2---------2---------2---------2-----|
D#|-3-------|-2-------|-----------------------------------------|-------------------------------------|

D#|---------|---------|---------|-----------------------------------------|---------|
A#|---------|---------|---------|-4----4----4----4----4----4----4----4----|---------|
F#|-4-------|-3-------|-1-------|-4----4----4----4----4----4----4----4----|-1-------|
C#|-5-------|-4-------|-2-------|-4----4----4----4----4----4----4----4----|-2-------|
G#|-5-------|-4-------|-2-------|-2----2----2----2----2----2----2----2----|-2-------|
D#|-3-------|-2-------|-0-------|-----------------------------------------|-0-------|

D#|-----------------------------------------|------------------------|-----------------------------------------|
A#|-----------------------------------------|------------------------|-4----4----4----4----4----4----4----4----|
F#|-4---------------------------------------|------4----%------%-----|-4----4----4----4----4----4----4----4----|
C#|-5---------------------------------------|------5----%------%-----|-4----4----4----4----4----4----4----4----|
G#|-5---------------------------------------|------5-----------------|-2----2----2----2----2----2----2----2----|
D#|-3----3----3----3----3----3----3----3----|-3----3-----------------|-----------------------------------------|

D#|---------|---------------|-----------------------------------------|---------|---------------|
A#|---------|-7------6------|-4----4----4----4----4----4----4----4----|---------|-7------6------|
F#|-6-------|-7------6------|-4----4----4----4----4----4----4----4----|-6-------|-7------6------|
C#|-5-------|-7------6------|-4----4----4----4----4----4----4----4----|-5-------|-7------6------|
G#|-5-------|-5------4------|-2----2----2----2----2----2----2----2----|-5-------|-5------4------|
D#|-3-------|---------------|-----------------------------------------|-3-------|---------------|

D#|-----------------------------------------|---------|---------------|-----------------------------------------|
A#|-4----4----4----4----4----4----4----4----|---------|-7------6------|-4----4----4----4----4----4----4----4----|
F#|-4----4----4----4----4----4----4----4----|-6-------|-7------6------|-4----4----4----4----4----4----4----4----|
C#|-4----4----4----4----4----4----4----4----|-5-------|-7------6------|-4----4----4----4----4----4----4----4----|
G#|-2----2----2----2----2----2----2----2----|-5-------|-5------4------|-2----2----2----2----2----2----2----2----|
D#|-----------------------------------------|-3-------|---------------|-----------------------------------------|

D#|---------|---------------|-----------------------------------------|---------|---------------|
A#|---------|-7------6------|-4----4----4----4----4----4----4----4----|---------|-7------6------|
F#|-6-------|-7------6------|-4----4----4----4----4----4----4----4----|-6-------|-7------6------|
C#|-5-------|-7------6------|-4----4----4----4----4----4----4----4----|-5-------|-7------6------|
G#|-5-------|-5------4------|-2----2----2----2----2----2----2----2----|-5-------|-5------4------|
D#|-3-------|---------------|-----------------------------------------|-3-------|---------------|

D#|-----------------------------------------|---------|---------------|-----------------------------------------|
A#|-4----4----4----4----4----4----4----4----|---------|-7------6------|-4---------4---------4---------4---------|
F#|-4----4----4----4----4----4----4----4----|-6-------|-7------6------|-4----%----4----%----4----%----4----%----|
C#|-4----4----4----4----4----4----4----4----|-5-------|-7------6------|-4----%----4----%----4----%----4----%----|
G#|-2----2----2----2----2----2----2----2----|-5-------|-5------4------|-2---------2---------2---------2---------|
D#|-----------------------------------------|-3-------|---------------|-----------------------------------------|

D#|-------------------------------------|---------|---------|-----------------------------------------|
A#|-4---------4---------4---------4-----|---------|---------|-4---------4---------4---------4---------|
F#|-4----%----4----%----4----%----4-----|-4-------|-3-------|-4----%----4----%----4----%----4----%----|
C#|-4----%----4----%----4----%----4-----|-5-------|-4-------|-4----%----4----%----4----%----4----%----|
G#|-2---------2---------2---------2-----|-5-------|-4-------|-2---------2---------2---------2---------|
D#|-------------------------------------|-3-------|-2-------|-----------------------------------------|

D#|-------------------------------------|---------|---------|---------|-----------------------------------------|
A#|-4---------4---------4---------4-----|---------|---------|---------|-4----4----4----4----4----4----4----4----|
F#|-4----%----4----%----4----%----4-----|-4-------|-3-------|-1-------|-4----4----4----4----4----4----4----4----|
C#|-4----%----4----%----4----%----4-----|-5-------|-4-------|-2-------|-4----4----4----4----4----4----4----4----|
G#|-2---------2---------2---------2-----|-5-------|-4-------|-2-------|-2----2----2----2----2----2----2----2----|
D#|-------------------------------------|-3-------|-2-------|-0-------|-----------------------------------------|

D#|---------|-----------------------------------------|------------------------|-----------------------------------------|
A#|---------|-----------------------------------------|------------------------|-4---------4---------4---------4---------|
F#|-1-------|-4---------------------------------------|------4----%------%-----|-4----%----4----%----4----%----4----%----|
C#|-2-------|-5---------------------------------------|------5----%------%-----|-4----%----4----%----4----%----4----%----|
G#|-2-------|-5---------------------------------------|------5-----------------|-2---------2---------2---------2---------|
D#|-0-------|-3----3----3----3----3----3----3----3----|-3----3-----------------|-----------------------------------------|

D#|-------------------------------------|---------|-------------------|
A#|-4---------4---------4---------4-----|-4-------|-4-------4---------|
F#|-4----%----4----%----4----%----4-----|-4-------|-4-------4----4----|
C#|-4----%----4----%----4----%----4-----|-4-------|-4-------4----4----|
G#|-2---------2---------2---------2-----|-2-------|-2-------2----2----|
D#|-------------------------------------|---------|-------------------|
Metallica - Die, Die My Darling
Metallica - Die, Die My Darling.gp3