Metallica - Disposable Heros

Metallica - Disposable Heros

Metallica



Title: Disposable Heros
Album: 
Artist: 
Author: Metallica

Track 1: Guitar 1
E|-------------------------------------------------|-------------------------------------------------|
B|-------------------------------------------------|-------------------------------------------------|
G|-------------------------------------------------|-------------------------------------------------|
D|-------------------------------4-----5-----4-----|-------------------------------5-----7-----4-----|
A|-------------------------------4-----5-----4-----|-------------------------------5-----7-----4-----|
E|-0----0----0----0----0----0----2-----3-----2-----|-0----0----0----0----0----0----3-----5-----2-----|

E|-------------------------------------------------|-----------------------------------------------------|
B|-------------------------------------------------|-----------------------------------------------------|
G|-------------------------------------------------|----------------------------------------------9------|
D|-------------------------------4-----5-----4-----|----------------------------------------------9------|
A|-------------------------------4-----5-----4-----|----------------------------------------------7------|
E|-0----0----0----0----0----0----2-----3-----2-----|-0----0----0----0----0----0----0----0----0-----------|

E|-------------------------------------------------|-------------------------------------------------|
B|-------------------------------------------------|-------------------------------------------------|
G|-------------------------------------------------|-------------------------------------------------|
D|-------------------------------4-----5-----4-----|-------------------------------5-----7-----4-----|
A|-------------------------------4-----5-----4-----|-------------------------------5-----7-----4-----|
E|-0----0----0----0----0----0----2-----3-----2-----|-0----0----0----0----0----0----3-----5-----2-----|

E|-------------------------------------------------|-----------------------------------------------------|
B|-------------------------------------------------|-----------------------------------------------------|
G|-------------------------------------------------|----------------------------------------------9------|
D|-------------------------------4-----5-----4-----|----------------------------------------------9------|
A|-------------------------------4-----5-----4-----|----------------------------------------------7------|
E|-0----0----0----0----0----0----2-----3-----2-----|-0----0----0----0----0----0----0----0----0-----------|

E|-------------------------------------------------|-------------------------------------------------|
B|-------------------------------------------------|-------------------------------------------------|
G|-------------------------------------------------|-------------------------------------------------|
D|-------------------------------4-----5-----4-----|-------------------------------5-----7-----4-----|
A|-------------------------------4-----5-----4-----|-------------------------------5-----7-----4-----|
E|-0----0----0----0----0----0----2-----3-----2-----|-0----0----0----0----0----0----3-----5-----2-----|

E|-------------------------------------------------|-----------------------------------------------------|
B|-------------------------------------------------|-----------------------------------------------------|
G|-------------------------------------------------|----------------------------------------------9------|
D|-------------------------------4-----5-----4-----|----------------------------------------------9------|
A|-------------------------------4-----5-----4-----|----------------------------------------------7------|
E|-0----0----0----0----0----0----2-----3-----2-----|-0----0----0----0----0----0----0----0----0-----------|

E|-------------------------------------------------|-------------------------------------------------|
B|-------------------------------------------------|-------------------------------------------------|
G|-------------------------------------------------|-------------------------------------------------|
D|-------------------------------4-----5-----4-----|-------------------------------5-----7-----4-----|
A|-------------------------------4-----5-----4-----|-------------------------------5-----7-----4-----|
E|-0----0----0----0----0----0----2-----3-----2-----|-0----0----0----0----0----0----3-----5-----2-----|

E|-------------------------------------------------|-----------------------------------------------------|
B|-------------------------------------------------|-----------------------------------------------------|
G|-------------------------------------------------|----------------------------------------------9------|
D|-------------------------------4-----5-----4-----|----------------------------------------------9------|
A|-------------------------------4-----5-----4-----|----------------------------------------------7------|
E|-0----0----0----0----0----0----2-----3-----2-----|-0----0----0----0----0----0----0----0----0-----------|

E|----------------|--------------------------------------------------|--------------------------------------------------|
B|----------------|--------------------------------------------------|--------------------------------------------------|
G|-9-------9------|--------------------------------------------------|--------------------------------------------------|
D|-9-------9------|--------------------------------------------------|--------------------------------------------------|
A|-7-------7------|--------------------------------------------------|--------------------------------------------------|
E|----------------|-0----0---0---0----0----0----0----0---0---0---0---|-0----0---0---0----0----0----0----0---0---0---0---|

E|--------------------------------------------------|--------------------------------------------------|
B|--------------------------------------------------|--------------------------------------------------|
G|--------------------------------------------------|--------------------------------------------------|
D|--------------------------------------------------|--------------------------------------------------|
A|--------------------------------------------------|--------------------------------------------------|
E|-0----0---0---0----0----0----0----0---0---0---0---|-0----0---0---0----0----0----0----0---0---0---0---|

E|--------------------------------------------------|--------------------------------------------------|
B|--------------------------------------------------|--------------------------------------------------|
G|--------------------------------------------------|--------------------------------------------------|
D|--------------------------------------------------|--------------------------------------------------|
A|--------------------------------------------------|--------------------------------------------------|
E|-0----0---0---0----0----0----0----0---0---0---0---|-0----0---0---0----0----0----0----0---0---0---0---|

E|--------------------------------------------------|--------------------------------------------------|
B|--------------------------------------------------|--------------------------------------------------|
G|--------------------------------------------------|--------------------------------------------------|
D|--------------------------------------------------|--------------------------------------------------|
A|--------------------------------------------------|--------------------------------------------------|
E|-0----0---0---0----0----0----0----0---0---0---0---|-0----0---0---0----0----0----0----0---0---0---0---|

E|--------------------------------------------------|--------------------------------------------------|
B|--------------------------------------------------|--------------------------------------------------|
G|--------------------------------------------------|--------------------------------------------------|
D|--------------------------------------------------|--------------------------------------------------|
A|--------------------------------------------------|--------------------------------------------------|
E|-0----0---0---0----0----0----0----0---0---0---0---|-0----0---0---0----0----0----0----0---0---0---0---|

E|--------------------------------------------------|--------------------------------------------------|
B|--------------------------------------------------|--------------------------------------------------|
G|--------------------------------------------------|--------------------------------------------------|
D|--------------------------------------------------|--------------------------------------------------|
A|--------------------------------------------------|--------------------------------------------------|
E|-0----0---0---0----0----0----0----0---0---0---0---|-0----0---0---0----0----0----0----0---0---0---0---|

E|--------------------------------------------------|--------------------------------------------------|
B|--------------------------------------------------|--------------------------------------------------|
G|--------------------------------------------------|--------------------------------------------------|
D|--------------------------------------------------|--------------------------------------------------|
A|--------------------------------------------------|--------------------------------------------------|
E|-0----0---0---0----0----0----0----0---0---0---0---|-0----0---0---0----0----0----0----0---0---0---0---|

E|--------------------------------------------------|--------------------------------------------------|
B|--------------------------------------------------|--------------------------------------------------|
G|--------------------------------------------------|--------------------------------------------------|
D|--------------------------------------------------|--------------------------------------------------|
A|--------------------------------------------------|--------------------------------------------------|
E|-0----0---0---0----0----0----0----0---0---0---0---|-0----0---0---0----0----0----0----0---0---0---0---|

E|--------------------------------------------------|--------------------------------------------------|
B|--------------------------------------------------|--------------------------------------------------|
G|--------------------------------------------------|--------------------------------------------------|
D|--------------------------------------------------|--------------------------------------------------|
A|--------------------------------------------------|--------------------------------------------------|
E|-0----0---0---0----0----0----0----0---0---0---0---|-0----0---0---0----0----0----0----0---0---0---0---|

E|--------------------------------------------------|--------------------------------------------------|
B|--------------------------------------------------|--------------------------------------------------|
G|--------------------------------------------------|--------------------------------------------------|
D|--------------------------------------------------|--------------------------------------------------|
A|--------------------------------------------------|--------------------------------------------------|
E|-0----0---0---0----0----0----0----0---0---0---0---|-0----0---0---0----0----0----0----0---0---0---0---|

E|--------------------------------------------------|--------------------------------------------------|
B|--------------------------------------------------|--------------------------------------------------|
G|--------------------------------------------------|--------------------------------------------------|
D|--------------------------------------------------|--------------------------------------------------|
A|--------------------------------------------------|--------------------------------------------------|
E|-0----0---0---0----0----0----0----0---0---0---0---|-0----0---0---0----0----0----0----0---0---0---0---|

E|--------------------------------------------------|--------------------------------------------------|
B|--------------------------------------------------|--------------------------------------------------|
G|--------------------------------------------------|--------------------------------------------------|
D|--------------------------------------------------|--------------------------------------------------|
A|--------------------------------------------------|--------------------------------------------------|
E|-0----0---0---0----0----0----0----0---0---0---0---|-0----0---0---0----0----0----0----0---0---0---0---|

E|--------------------------------------------------|--------------------------------------------------|
B|--------------------------------------------------|--------------------------------------------------|
G|--------------------------------------------------|--------------------------------------------------|
D|--------------------------------------------------|--------------------------------------------------|
A|--------------------------------------------------|--------------------------------------------------|
E|-0----0---0---0----0----0----0----0---0---0---0---|-0----0---0---0----0----0----0----0---0---0---0---|

E|--------------------------------------------------|--------------------------------------------------|
B|--------------------------------------------------|--------------------------------------------------|
G|--------------------------------------------------|--------------------------------------------------|
D|--------------------------------------------------|--------------------------------------------------|
A|--------------------------------------------------|--------------------------------------------------|
E|-0----0---0---0----0----0----0----0---0---0---0---|-0----0---0---0----0----0----0----0---0---0---0---|

E|--------------------------------------------------|--------------------------------------------------|
B|--------------------------------------------------|--------------------------------------------------|
G|--------------------------------------------------|--------------------------------------------------|
D|--------------------------------------------------|--------------------------------------------------|
A|--------------------------------------------------|--------------------------------------------------|
E|-0----0---0---0----0----0----0----0---0---0---0---|-0----0---0---0----0----0----0----0---0---0---0---|

E|--------------------------------------------------|--------------------------------------------------|
B|--------------------------------------------------|--------------------------------------------------|
G|--------------------------------------------------|--------------------------------------------------|
D|--------------------------------------------------|--------------------------------------------------|
A|--------------------------------------------------|--------------------------------------------------|
E|-0----0---0---0----0----0----0----0---0---0---0---|-0----0---0---0----0----0----0----0---0---0---0---|

E|-----------------------------------------------------------|-----------------------------------------------------------|
B|-----------------------------------------------------------|-----------------------------------------------------------|
G|-----------------------------------------------------------|-----------------------------------------------------------|
D|-6---------------------------------------------------------|-6---------------------------------------------------------|
A|-4----4---4---4---4---4---4---4----4---4---4---4---4---4---|-4----4---4---4---4---4---4---4----4---4---4---4---4---4---|
E|-----------------------------------------------------------|-----------------------------------------------------------|

E|-----------------------------------------------------------|-----------------------------------------------------------|
B|-----------------------------------------------------------|-----------------------------------------------------------|
G|-----------------------------------------------------------|-----------------------------------------------------------|
D|-6---------------------------------------------------------|-6---------------------------------------------------------|
A|-4----4---4---4---4---4---4---4----4---4---4---4---4---4---|-4----4---4---4---4---4---4---4----4---4---4---4---4---4---|
E|-----------------------------------------------------------|-----------------------------------------------------------|

E|-----------------------------------------------------------|-----------------------------------------------------------|
B|-----------------------------------------------------------|-----------------------------------------------------------|
G|-----------------------------------------------------------|-----------------------------------------------------------|
D|-6---------------------------------------------------------|-6---------------------------------------------------------|
A|-4----4---4---4---4---4---4---4----4---4---4---4---4---4---|-4----4---4---4---4---4---4---4----4---4---4---4---4---4---|
E|-----------------------------------------------------------|-----------------------------------------------------------|

E|-----------------------------------------|-----------------------------------------------------|
B|-----------------------------------------|-----------------------------------------------------|
G|-----------------------------------------|---------------------------7----7---6----6--4----4---|
D|-----------------------------------------|-5----5---4----4--2----2---7----7---6----6--4----4---|
A|-0----10---9----0----9----7--------------|-5----5---4----4--2----2---5----5---4----4--2----2---|
E|-------------------------------10---9----|-3----3---2----2--0----0-----------------------------|

E|--------------------------------------------------|--------------------------------------------------|
B|--------------------------------------------------|--------------------------------------------------|
G|--------------------------------------------------|--------------------------------------------------|
D|--------------------------------------------------|--------------------------------------------------|
A|--------------------------------------------------|--------------------------------------------------|
E|-0----0---0---0----0----0----0----0---0---0---0---|-0----0---0---0----0----0----0----0---0---0---0---|

E|--------------------------------------------------|--------------------------------------------------|
B|--------------------------------------------------|--------------------------------------------------|
G|--------------------------------------------------|--------------------------------------------------|
D|--------------------------------------------------|--------------------------------------------------|
A|--------------------------------------------------|--------------------------------------------------|
E|-0----0---0---0----0----0----0----0---0---0---0---|-0----0---0---0----0----0----0----0---0---0---0---|

E|--------------------------------------------------|--------------------------------------------------|
B|--------------------------------------------------|--------------------------------------------------|
G|--------------------------------------------------|--------------------------------------------------|
D|--------------------------------------------------|--------------------------------------------------|
A|--------------------------------------------------|--------------------------------------------------|
E|-0----0---0---0----0----0----0----0---0---0---0---|-0----0---0---0----0----0----0----0---0---0---0---|

E|--------------------------------------------------|--------------------------------------------------|
B|--------------------------------------------------|--------------------------------------------------|
G|--------------------------------------------------|--------------------------------------------------|
D|--------------------------------------------------|--------------------------------------------------|
A|--------------------------------------------------|--------------------------------------------------|
E|-0----0---0---0----0----0----0----0---0---0---0---|-0----0---0---0----0----0----0----0---0---0---0---|

E|--------------------------------------------------|--------------------------------------------------|
B|--------------------------------------------------|--------------------------------------------------|
G|--------------------------------------------------|--------------------------------------------------|
D|--------------------------------------------------|--------------------------------------------------|
A|--------------------------------------------------|--------------------------------------------------|
E|-0----0---0---0----0----0----0----0---0---0---0---|-0----0---0---0----0----0----0----0---0---0---0---|

E|--------------------------------------------------|--------------------------------------------------|
B|--------------------------------------------------|--------------------------------------------------|
G|--------------------------------------------------|--------------------------------------------------|
D|--------------------------------------------------|--------------------------------------------------|
A|--------------------------------------------------|--------------------------------------------------|
E|-3----3---3---3----3----3----3----3---3---3---3---|-2----2---2---2----2----2----2----2---2---2---2---|

E|--------------------------------------------------|--------------------------------------------------|
B|--------------------------------------------------|--------------------------------------------------|
G|--------------------------------------------------|--------------------------------------------------|
D|--------------------------------------------------|--------------------------------------------------|
A|--------------------------------------------------|--------------------------------------------------|
E|-0----0---0---0----0----0----0----0---0---0---0---|-0----0---0---0----0----0----0----0---0---0---0---|

E|--------------------------------------------------|--------------------------------------------------|
B|--------------------------------------------------|--------------------------------------------------|
G|--------------------------------------------------|--------------------------------------------------|
D|--------------------------------------------------|--------------------------------------------------|
A|--------------------------------------------------|-2----2---2---2----2----2----2----2---2---2---2---|
E|-3----3---3---3----3----3----3----3---3---3---3---|--------------------------------------------------|

E|--------------------------------------------------|--------------------------------------------------|
B|--------------------------------------------------|--------------------------------------------------|
G|--------------------------------------------------|--------------------------------------------------|
D|--------------------------------------------------|--------------------------------------------------|
A|--------------------------------------------------|--------------------------------------------------|
E|-0----0---0---0----0----0----0----0---0---0---0---|-0----0---0---0----0----0----0----0---0---0---0---|

E|--------------------------------------------------|--------------------------------------------------|
B|--------------------------------------------------|--------------------------------------------------|
G|--------------------------------------------------|--------------------------------------------------|
D|--------------------------------------------------|--------------------------------------------------|
A|--------------------------------------------------|--------------------------------------------------|
E|-3----3---3---3----3----3----3----3---3---3---3---|-2----2---2---2----2----2----2----2---2---2---2---|

E|--------------------------------------------------|--------------------------------------------------|
B|--------------------------------------------------|--------------------------------------------------|
G|--------------------------------------------------|--------------------------------------------------|
D|--------------------------------------------------|--------------------------------------------------|
A|--------------------------------------------------|--------------------------------------------------|
E|-0----0---0---0----0----0----0----0---0---0---0---|-0----0---0---0----0----0----0----0---0---0---0---|

E|--------------------------------------------------|--------------------------------------------------|
B|--------------------------------------------------|--------------------------------------------------|
G|--------------------------------------------------|--------------------------------------------------|
D|--------------------------------------------------|--------------------------------------------------|
A|--------------------------------------------------|-2----2---2---2----2----2----2----2---2---2---2---|
E|-3----3---3---3----3----3----3----3---3---3---3---|--------------------------------------------------|

E|-----------------------------------------------------------|-----------------------------------------------------------|
B|-----------------------------------------------------------|-----------------------------------------------------------|
G|-1---------------------------------------------------------|-----------------------------------------------------------|
D|-----------------------------------------------------------|-6---------------------------------------------------------|
A|-4----4---4---4---4---4---4---4----4---4---4---4---4---4---|-4----4---4---4---4---4---4---4----4---4---4---4---4---4---|
E|-----------------------------------------------------------|-----------------------------------------------------------|

E|-------------------------------------------|-------------------------------------------|
B|-------------------------------------------|-------------------------------------------|
G|-------------------------------------------|-------------------------------------------|
D|-6-----------------------------------------|-4-----------------------------------------|
A|-4----4---4---4---4---4---4---4----4---4---|-2----2---2---2---2---2---2---2----2---2---|
E|-------------------------------------------|-------------------------------------------|

E|-----------------------------------------------------------|-----------------------------------------------------------|
B|-----------------------------------------------------------|-----------------------------------------------------------|
G|-----------------------------------------------------------|-----------------------------------------------------------|
D|-6---------------------------------------------------------|-6---------------------------------------------------------|
A|-4----4---4---4---4---4---4---4----4---4---4---4---4---4---|-4----4---4---4---4---4---4---4----4---4---4---4---4---4---|
E|-----------------------------------------------------------|-----------------------------------------------------------|

E|-------------------------------------------|-------------------------------------------|
B|-------------------------------------------|-------------------------------------------|
G|-------------------------------------------|-------------------------------------------|
D|-6-----------------------------------------|-4-----------------------------------------|
A|-4----4---4---4---4---4---4---4----4---4---|-2----2---2---2---2---2---2---2----2---2---|
E|-------------------------------------------|-------------------------------------------|

E|-----------------------------------------------------------|-----------------------------------------------------------|
B|-----------------------------------------------------------|-----------------------------------------------------------|
G|-----------------------------------------------------------|-----------------------------------------------------------|
D|-6---------------------------------------------------------|-6---------------------------------------------------------|
A|-4----4---4---4---4---4---4---4----4---4---4---4---4---4---|-4----4---4---4---4---4---4---4----4---4---4---4---4---4---|
E|-----------------------------------------------------------|-----------------------------------------------------------|

E|-------------------------------------------|-------------------------------------------|
B|-------------------------------------------|-------------------------------------------|
G|-------------------------------------------|-------------------------------------------|
D|-6-----------------------------------------|-4-----------------------------------------|
A|-4----4---4---4---4---4---4---4----4---4---|-2----2---2---2---2---2---2---2----2---2---|
E|-------------------------------------------|-------------------------------------------|

E|-----------------------------------------------------------|-----------------------------------------------------------|
B|-----------------------------------------------------------|-----------------------------------------------------------|
G|-----------------------------------------------------------|-----------------------------------------------------------|
D|-6---------------------------------------------------------|-6---------------------------------------------------------|
A|-4----4---4---4---4---4---4---4----4---4---4---4---4---4---|-4----4---4---4---4---4---4---4----4---4---4---4---4---4---|
E|-----------------------------------------------------------|-----------------------------------------------------------|

E|-------------------------------------------|-------------------------------------------|
B|-------------------------------------------|-------------------------------------------|
G|-------------------------------------------|-------------------------------------------|
D|-6-----------------------------------------|-4-----------------------------------------|
A|-4----4---4---4---4---4---4---4----4---4---|-2----2---2---2---2---2---2---2----2---2---|
E|-------------------------------------------|-------------------------------------------|

E|-----------------------------------|-----------------------------------|------------------------|
B|-----------------------------------|-----------------------------------|------------------------|
G|-4------4---5--4--2------2---4--5--|-4------4---5--4--2------2---4--5--|-4------4---5--4--2-----|
D|-----------------------------------|-----------------------------------|------------------------|
A|-----------------------------------|-----------------------------------|------------------------|
E|-----------------------------------|-----------------------------------|------------------------|

E|---------|-----------------------------------|-----------------------------------|
B|---------|-----------------------------------|-----------------------------------|
G|-4-------|-4------4---5--4--2------2---4--5--|-4------4---5--4--2------2---4--5--|
D|---------|-----------------------------------|-----------------------------------|
A|---------|-----------------------------------|-----------------------------------|
E|---------|-----------------------------------|-----------------------------------|

E|------------------------|---------|---------------------------------------|--------------------------------------------|
B|------------------------|---------|---------------------------------------|--------------------------------------------|
G|-4------4---5--4--2-----|-4-------|-4----4---3----3--4----4---5-----4-----|-9------------------------------------------|
D|------------------------|---------|-4----4---3----3--4----4---5-----4-----|-9-------------------------------------5----|
A|------------------------|---------|-2----2---1----1--2----2---3-----2-----|-7-------------------------------------5----|
E|------------------------|---------|---------------------------------------|-0----0---0---0----0----0----0----0----3----|

E|------------------------|------------------------|--------------------|--------------------------------------------|
B|------------------------|------------------------|--------------------|--------------------------------------------|
G|------------------------|------------------------|--------------------|--------------------------------------------|
D|-5------5----8-----4----|-4------4----7-----3----|-3------3----5------|---------------------------------------5----|
A|-5------5----8-----4----|-4------4----7-----3----|-3------3----5------|---------------------------------------5----|
E|-3------3----6-----2----|-2------2----5-----1----|-1------1----3------|-0----0---0---0----0----0----0----0----3----|

E|------------------------|------------------------|--------------------|--------------------------------------------|
B|------------------------|------------------------|--------------------|--------------------------------------------|
G|------------------------|------------------------|--------------------|--------------------------------------------|
D|-5------5----8-----4----|-4------4----7-----3----|-3------3----5------|---------------------------------------5----|
A|-5------5----8-----4----|-4------4----7-----3----|-3------3----5------|---------------------------------------5----|
E|-3------3----6-----2----|-2------2----5-----1----|-1------1----3------|-0----0---0---0----0----0----0----0----3----|

E|------------------------|------------------------|--------------------|--------------------------------------------|
B|------------------------|------------------------|--------------------|--------------------------------------------|
G|------------------------|------------------------|--------------------|--------------------------------------------|
D|-5------5----8-----4----|-4------4----7-----3----|-3------3----5------|---------------------------------------5----|
A|-5------5----8-----4----|-4------4----7-----3----|-3------3----5------|---------------------------------------5----|
E|-3------3----6-----2----|-2------2----5-----1----|-1------1----3------|-0----0---0---0----0----0----0----0----3----|

E|------------------------|------------------------|--------------------|---------------------------------------|
B|------------------------|------------------------|--------------------|---------------------------------------|
G|------------------------|------------------------|--------------------|---------------------------------------|
D|-5------5----8-----4----|-4------4----7-----3----|-3------3----5------|---------------------------------------|
A|-5------5----8-----4----|-4------4----7-----3----|-3------3----5------|---------------------------------------|
E|-3------3----6-----2----|-2------2----5-----1----|-1------1----3------|-0----0---0---0----0----0----0----0----|

E|-----------------|------------------------|---------------------------|------------------------|
B|-----------------|------------------------|---------------------------|------------------------|
G|------%-----%----|------------------------|---------------------------|------------------------|
D|------%-----%----|------------------------|---------------------------|------------------------|
A|-----------------|------------------------|---------------------------|------------------------|
E|-0---------------|-0----0---0---0----0----|-0----0----0---0---0---0---|-0----0---0---0----0----|

E|---------------------------|------------------------|---------------------------|
B|---------------------------|------------------------|---------------------------|
G|---------------------------|------------------------|---------------------------|
D|---------------------------|------------------------|---------------------------|
A|---------------------------|------------------------|---------------------------|
E|-0----0----0---0---0---0---|-3----3---3---3----3----|-3----3----3---3---3---3---|

E|------------------------|---------------------------|------------------------|---------------------------|
B|------------------------|---------------------------|------------------------|---------------------------|
G|------------------------|---------------------------|------------------------|---------------------------|
D|------------------------|---------------------------|------------------------|---------------------------|
A|------------------------|---------------------------|------------------------|---------------------------|
E|-2----2---2---2----2----|-2----2----2---2---2---2---|-0----0---0---0----0----|-0----0----0---0---0---0---|

E|------------------------|---------------------------|------------------------|---------------------------|
B|------------------------|---------------------------|------------------------|---------------------------|
G|------------------------|---------------------------|------------------------|---------------------------|
D|------------------------|---------------------------|------------------------|---------------------------|
A|------------------------|---------------------------|------------------------|---------------------------|
E|-0----0---0---0----0----|-0----0----0---0---0---0---|-3----3---3---3----3----|-3----3----3---3---3---3---|

E|------------------------|---------------------------|------------------------|---------------------------|
B|------------------------|---------------------------|------------------------|---------------------------|
G|------------------------|---------------------------|------------------------|---------------------------|
D|------------------------|---------------------------|------------------------|---------------------------|
A|-2----2---2---2----2----|-2----2----2---2---2---2---|------------------------|---------------------------|
E|------------------------|---------------------------|-0----0---0---0----0----|-0----0----0---0---0---0---|

E|------------------------|---------------------------|------------------------|---------------------------|
B|------------------------|---------------------------|------------------------|---------------------------|
G|------------------------|---------------------------|------------------------|---------------------------|
D|------------------------|---------------------------|------------------------|---------------------------|
A|------------------------|---------------------------|------------------------|---------------------------|
E|-0----0---0---0----0----|-0----0----0---0---0---0---|-3----3---3---3----3----|-3----3----3---3---3---3---|

E|------------------------|---------------------------|------------------------|---------------------------|
B|------------------------|---------------------------|------------------------|---------------------------|
G|------------------------|---------------------------|------------------------|---------------------------|
D|------------------------|---------------------------|------------------------|---------------------------|
A|------------------------|---------------------------|------------------------|---------------------------|
E|-2----2---2---2----2----|-2----2----2---2---2---2---|-0----0---0---0----0----|-0----0----0---0---0---0---|

E|------------------------|---------------------------|------------------------|---------------------------|
B|------------------------|---------------------------|------------------------|---------------------------|
G|------------------------|---------------------------|------------------------|---------------------------|
D|------------------------|---------------------------|------------------------|---------------------------|
A|------------------------|---------------------------|------------------------|---------------------------|
E|-0----0---0---0----0----|-0----0----0---0---0---0---|-3----3---3---3----3----|-3----3----3---3---3---3---|

E|------------------------|---------------------------|-----------------------------------------------------------|
B|------------------------|---------------------------|-----------------------------------------------------------|
G|------------------------|---------------------------|-1---------------------------------------------------------|
D|------------------------|---------------------------|-----------------------------------------------------------|
A|-2----2---2---2----2----|-2----2----2---2---2---2---|-4----4---4---4---4---4---4---4----4---4---4---4---4---4---|
E|------------------------|---------------------------|-----------------------------------------------------------|

E|-----------------------------------------------------------|-------------------------------------------|
B|-----------------------------------------------------------|-------------------------------------------|
G|-----------------------------------------------------------|-------------------------------------------|
D|-6---------------------------------------------------------|-6-----------------------------------------|
A|-4----4---4---4---4---4---4---4----4---4---4---4---4---4---|-4----4---4---4---4---4---4---4----4---4---|
E|-----------------------------------------------------------|-------------------------------------------|

E|-------------------------------------------|-----------------------------------------------------------|
B|-------------------------------------------|-----------------------------------------------------------|
G|-------------------------------------------|-----------------------------------------------------------|
D|-4-----------------------------------------|-6---------------------------------------------------------|
A|-2----2---2---2---2---2---2---2----2---2---|-4----4---4---4---4---4---4---4----4---4---4---4---4---4---|
E|-------------------------------------------|-----------------------------------------------------------|

E|-----------------------------------------------------------|-------------------------------------------|
B|-----------------------------------------------------------|-------------------------------------------|
G|-----------------------------------------------------------|-------------------------------------------|
D|-6---------------------------------------------------------|-6-----------------------------------------|
A|-4----4---4---4---4---4---4---4----4---4---4---4---4---4---|-4----4---4---4---4---4---4---4----4---4---|
E|-----------------------------------------------------------|-------------------------------------------|

E|-------------------------------------------|-----------------------------------------------------------|
B|-------------------------------------------|-----------------------------------------------------------|
G|-------------------------------------------|-----------------------------------------------------------|
D|-4-----------------------------------------|-6---------------------------------------------------------|
A|-2----2---2---2---2---2---2---2----2---2---|-4----4---4---4---4---4---4---4----4---4---4---4---4---4---|
E|-------------------------------------------|-----------------------------------------------------------|

E|-----------------------------------------------------------|-------------------------------------------|
B|-----------------------------------------------------------|-------------------------------------------|
G|-----------------------------------------------------------|-------------------------------------------|
D|-6---------------------------------------------------------|-6-----------------------------------------|
A|-4----4---4---4---4---4---4---4----4---4---4---4---4---4---|-4----4---4---4---4---4---4---4----4---4---|
E|-----------------------------------------------------------|-------------------------------------------|

E|-------------------------------------------|-----------------------------------------------------------|
B|-------------------------------------------|-----------------------------------------------------------|
G|-------------------------------------------|-----------------------------------------------------------|
D|-4-----------------------------------------|-6---------------------------------------------------------|
A|-2----2---2---2---2---2---2---2----2---2---|-4----4---4---4---4---4---4---4----4---4---4---4---4---4---|
E|-------------------------------------------|-----------------------------------------------------------|

E|-----------------------------------------------------------|-------------------------------------------|
B|-----------------------------------------------------------|-------------------------------------------|
G|-----------------------------------------------------------|-------------------------------------------|
D|-6---------------------------------------------------------|-6-----------------------------------------|
A|-4----4---4---4---4---4---4---4----4---4---4---4---4---4---|-4----4---4---4---4---4---4---4----4---4---|
E|-----------------------------------------------------------|-------------------------------------------|

E|-------------------------------------------|-----------------------------------|-----------------------------------|
B|-------------------------------------------|-----------------------------------|-----------------------------------|
G|-------------------------------------------|-4------4---5--4--2------2---4--5--|-4------4---5--4--2------2---4--5--|
D|-4-----------------------------------------|-----------------------------------|-----------------------------------|
A|-2----2---2---2---2---2---2---2----2---2---|-----------------------------------|-----------------------------------|
E|-------------------------------------------|-----------------------------------|-----------------------------------|

E|------------------------|---------|-----------------------------------|-----------------------------------|
B|------------------------|---------|-----------------------------------|-----------------------------------|
G|-4------4---5--4--2-----|-4-------|-4------4---5--4--2------2---4--5--|-4------4---5--4--2------2---4--5--|
D|------------------------|---------|-----------------------------------|-----------------------------------|
A|------------------------|---------|-----------------------------------|-----------------------------------|
E|------------------------|---------|-----------------------------------|-----------------------------------|

E|------------------------|---------|---------------------------------------|--------------------------------------------|
B|------------------------|---------|---------------------------------------|--------------------------------------------|
G|-4------4---5--4--2-----|-4-------|-4----4---3----3--4----4---5-----4-----|-9------------------------------------------|
D|------------------------|---------|-4----4---3----3--4----4---5-----4-----|-9-------------------------------------5----|
A|------------------------|---------|-2----2---1----1--2----2---3-----2-----|-7-------------------------------------5----|
E|------------------------|---------|---------------------------------------|-0----0---0---0----0----0----0----0----3----|

E|------------------------|------------------------|--------------------|--------------------------------------------|
B|------------------------|------------------------|--------------------|--------------------------------------------|
G|------------------------|------------------------|--------------------|--------------------------------------------|
D|-5------5----8-----4----|-4------4----7-----3----|-3------3----5------|---------------------------------------5----|
A|-5------5----8-----4----|-4------4----7-----3----|-3------3----5------|---------------------------------------5----|
E|-3------3----6-----2----|-2------2----5-----1----|-1------1----3------|-0----0---0---0----0----0----0----0----3----|

E|------------------------|------------------------|--------------------|--------------------------------------------|
B|------------------------|------------------------|--------------------|--------------------------------------------|
G|------------------------|------------------------|--------------------|--------------------------------------------|
D|-5------5----8-----4----|-4------4----7-----3----|-3------3----5------|---------------------------------------5----|
A|-5------5----8-----4----|-4------4----7-----3----|-3------3----5------|---------------------------------------5----|
E|-3------3----6-----2----|-2------2----5-----1----|-1------1----3------|-0----0---0---0----0----0----0----0----3----|

E|------------------------|------------------------|--------------------|--------------------------------------------|
B|------------------------|------------------------|--------------------|--------------------------------------------|
G|------------------------|------------------------|--------------------|--------------------------------------------|
D|-5------5----8-----4----|-4------4----7-----3----|-3------3----5------|---------------------------------------5----|
A|-5------5----8-----4----|-4------4----7-----3----|-3------3----5------|---------------------------------------5----|
E|-3------3----6-----2----|-2------2----5-----1----|-1------1----3------|-0----0---0---0----0----0----0----0----3----|

E|------------------------|------------------------|--------------------|---------------------------------------|
B|------------------------|------------------------|--------------------|---------------------------------------|
G|------------------------|------------------------|--------------------|---------------------------------------|
D|-5------5----8-----4----|-4------4----7-----3----|-3------3----5------|---------------------------------------|
A|-5------5----8-----4----|-4------4----7-----3----|-3------3----5------|---------------------------------------|
E|-3------3----6-----2----|-2------2----5-----1----|-1------1----3------|-0----0---0---0----0----0----0----0----|

E|-----------------|---------------------------------------|-------------------------------------|
B|-----------------|---------------------------------------|-------------------------------------|
G|------%-----%----|---------------------------------------|-------------------------------------|
D|------%-----%----|---------------------------------------|-2-----------------------------------|
A|-----------------|---------------------------------------|-2---------------5----7--------------|
E|-0---------------|-0----0---0---0----0----0----0----0----|-0-----0----0----0---------0----0----|

E|-------------------------------------|-------------------------------------|---------------------------------|
B|-------------------------------------|-------------------------------------|---------------------------------|
G|-------------------------------------|-------------------------------------|---------------------------------|
D|-------------------------------------|-2-----------------------------------|---------------------------------|
A|-5---------------4----7--------------|-2---------------5----7--------------|-5---------------4----7----2-----|
E|-0-----0----0----0---------0----0----|-0-----0----0----0---------0----0----|-0-----0----0----0---------0-----|

E|-------------------------------------|-------------------------------------|-------------------------------------|
B|-------------------------------------|-------------------------------------|-------------------------------------|
G|-------------------------------------|-------------------------------------|-------------------------------------|
D|-2-----------------------------------|-------------------------------------|-2-----------------------------------|
A|-2---------------5----7--------------|-5---------------4----7--------------|-2---------------5----7--------------|
E|-0-----0----0----0---------0----0----|-0-----0----0----0---------0----0----|-0-----0----0----0---------0----0----|

E|---------------------------------|-------------------------------------|-------------------------------------|
B|---------------------------------|-------------------------------------|-------------------------------------|
G|---------------------------------|-------------------------------------|-------------------------------------|
D|---------------------------------|-2-----------------------------------|-------------------------------------|
A|-5---------------4----7----2-----|-2---------------5----7--------------|-5---------------4----7--------------|
E|-0-----0----0----0---------0-----|-0-----0----0----0---------0----0----|-0-----0----0----0---------0----0----|

E|-------------------------------------|---------------------------------|-------------------------------------|
B|-------------------------------------|---------------------------------|-------------------------------------|
G|-------------------------------------|---------------------------------|-------------------------------------|
D|-2-----------------------------------|---------------------------------|-2-----------------------------------|
A|-2---------------5----7--------------|-5---------------4----7----2-----|-2---------------5----7--------------|
E|-0-----0----0----0---------0----0----|-0-----0----0----0---------0-----|-0-----0----0----0---------0----0----|

E|-------------------------------------|-------------------------------------|---------------------------------|
B|-------------------------------------|-------------------------------------|---------------------------------|
G|-------------------------------------|-------------------------------------|---------------------------------|
D|-------------------------------------|-2-----------------------------------|---------------------------------|
A|-5---------------4----7--------------|-2---------------5----7--------------|-5---------------4----7----2-----|
E|-0-----0----0----0---------0----0----|-0-----0----0----0---------0----0----|-0-----0----0----0---------0-----|

E|-------------------------|-------------------------------12---|--------------------------------------------12-------|
B|-15----15----15-----15---|-15---------------------------------|-15--12------12--15--12----12---15--12--15------12---|
G|-14----14----14-----14---|-14----14--12-------12---14---------|---------14------------------------------------------|
D|-------------------------|---------------14-------------------|-----------------------------------------------------|
A|-------------------------|------------------------------------|-----------------------------------------------------|
E|-------------------------|------------------------------------|-----------------------------------------------------|

E|------12--------12--------------12---|-22----22-----22---22--19--|-22--19-------19---------19----------------|
B|-15--------15--------15----15--------|---------------------------|---------22--------22---------22--19--22---|
G|-------------------------------------|---------------------------|-------------------------------------------|
D|-------------------------------------|---------------------------|-------------------------------------------|
A|-------------------------------------|---------------------------|-------------------------------------------|
E|-------------------------------------|---------------------------|-------------------------------------------|

E|------19---------------------19----------------|------19--------19---------------|
B|-22--------22--19--22---22--------22--19--22---|-22--------22--------22----------|
G|-----------------------------------------------|----------------------------%----|
D|-----------------------------------------------|----------------------------%----|
A|-----------------------------------------------|---------------------------------|
E|-----------------------------------------------|---------------------------------|

E|-19---20---22---20---19---17---19---17---15---17---15---14---|-15---17---14---15---14---12---14---12---10---12---10--------|
B|-------------------------------------------------------------|--------------------------------------------------------13---|
G|-------------------------------------------------------------|-------------------------------------------------------------|
D|-------------------------------------------------------------|-------------------------------------------------------------|
A|-------------------------------------------------------------|-------------------------------------------------------------|
E|-------------------------------------------------------------|-------------------------------------------------------------|

E|------10---12---10--10-----------------------------------------|---------------------------------------------------------------------------------------|
B|-13--------------------13---12---12-10---12--12-10-------------|-15--12--17--15--12--17--15--15-17--12--15--17--12--15--17--12--15---15-17--12--8---8--|
G|-----------------------------------------------------12---11---|---------------------------------------------------------------------------------------|
D|---------------------------------------------------------------|---------------------------------------------------------------------------------------|
A|---------------------------------------------------------------|---------------------------------------------------------------------------------------|
E|---------------------------------------------------------------|---------------------------------------------------------------------------------------|

E|-------------------------------------|-----------------------------------|--------------------------------------------|
B|-------------------------------------|-----------------------------------|--------------------------------------------|
G|-9-----11---11---11---11---%----11---|-11----11----11----9-----7----9----|-9----7---------7----9---7------------------|
D|---------------------------%---------|-----------------------------------|-----------9-----------------9----7---------|
A|-------------------------------------|-----------------------------------|---------------------------------------9----|
E|-------------------------------------|-----------------------------------|--------------------------------------------|

E|---------------------------------|-18--15-------------------------------------|---------------------------------|
B|---------------------------------|---------16---13----------------------------|---------------------------------|
G|---------------------------------|-------------------12-----------------------|---------------------15-----15---|
D|---------------------------------|------------------------13---12-------------|------13---15---17---------------|
A|-8----7---------7----9----9------|----------------------------------15---13---|-15------------------------------|
E|-----------10--------------------|--------------------------------------------|---------------------------------|

E|-------------------------------------------------------------|--------------------------------------------------------------|
B|-13---13---13---15---15---15---16---16---16---16---18---18---|-------------------------------13---13---13---15---15--17--17-|
G|-------------------------------------------------------------|-12---12---12---14---14---14----------------------------------|
D|-------------------------------------------------------------|--------------------------------------------------------------|
A|-------------------------------------------------------------|--------------------------------------------------------------|
E|-------------------------------------------------------------|--------------------------------------------------------------|

E|-17---12--------17---12--------17---12--------17---12--------|-16---12--------16---12--------16---12--------16---12--------|
B|-----------12-------------12-------------12-------------12---|-----------12-------------12-------------12-------------12---|
G|-------------------------------------------------------------|-------------------------------------------------------------|
D|-------------------------------------------------------------|-------------------------------------------------------------|
A|-------------------------------------------------------------|-------------------------------------------------------------|
E|-------------------------------------------------------------|-------------------------------------------------------------|

E|-17---12--------17---12--------17---12--------17---12--------|-17---12--------17---12--------17---12--------17---12--------|
B|-----------12-------------12-------------12-------------12---|-----------12-------------12-------------12-------------12---|
G|-------------------------------------------------------------|-------------------------------------------------------------|
D|-------------------------------------------------------------|-------------------------------------------------------------|
A|-------------------------------------------------------------|-------------------------------------------------------------|
E|-------------------------------------------------------------|-------------------------------------------------------------|

E|---------------------------------|-----------------------------------------|---------------15----15--15-15---12------------------|
B|-15-----15----15--15-12----------|-12---15---12--15--15-----15---12--------|-12--12-------------------------------15---12--------|
G|--------------------------14--14-|------------------------------------14---|--------%---%-----------------------------------14---|
D|---------------------------------|-----------------------------------------|--------%---%----------------------------------------|
A|---------------------------------|-----------------------------------------|-----------------------------------------------------|
E|---------------------------------|-----------------------------------------|-----------------------------------------------------|

E|----------------------------|-----------------------------------------|-----------------------------------------|
B|----------------------------|-----------------------------------------|-----------------------------------------|
G|-12--------12---14-----14---|-----------------------------------------|-----------7--------------7----7---------|
D|------14--------------------|-9-----------------------------7---------|-9----7---------10---9--------------10---|
A|----------------------------|------7----7----10---9--------------10---|-----------------------------------------|
E|----------------------------|--------------------------10-------------|-----------------------------------------|

E|-------------------------------7---------|---------------------17-----|---------------------------------|
B|----------------7-------------------10---|------17---15---14----------|-----------------13--------------|
G|-9----7----7---------9----7--------------|-%--------------------------|-12----12---12--------12----12---|
D|-----------------------------------------|-%--------------------------|---------------------------------|
A|-----------------------------------------|----------------------------|---------------------------------|
E|-----------------------------------------|----------------------------|---------------------------------|

E|-----------------12------------------|---------------------------------|-----------------15-----|
B|-15----------------------------------|-----------------13--------------|-15---------------------|
G|------12----12--------12---12---12---|-12----12---12--------12----12---|------12----12----------|
D|-------------------------------------|---------------------------------|------------------------|
A|-------------------------------------|---------------------------------|------------------------|
E|-------------------------------------|---------------------------------|------------------------|

E|-15---12--------12-------------------------------------------|--------------------------------------------------------12---|
B|-----------15--------15---12---15---12--------12--------12---|-15---12-----------------------------------------------------|
G|-----------------------------------------14--------14--------|-----------14---12--------12---14---12-------------%---------|
D|-------------------------------------------------------------|---------------------14------------------14---14---%---------|
A|-------------------------------------------------------------|-------------------------------------------------------------|
E|-------------------------------------------------------------|-------------------------------------------------------------|

E|-15---12-----------------------------------------------------|--------------------------|
B|-----------15---12--------12---15---12-----------------------|--------------------------|
G|---------------------14------------------14---12--------12---|-14----14----12-----------|
D|---------------------------------------------------14--------|-------------------14-----|
A|-------------------------------------------------------------|--------------------------|
E|-------------------------------------------------------------|--------------------------|

E|---------------------------------|-----------------12------------------|---------------------------------|
B|-----------------13--------------|-15----------------------------------|-----------------13--------------|
G|-12----12---12--------12----12---|------12----12--------12---12---12---|-12----12---12--------12----12---|
D|---------------------------------|-------------------------------------|---------------------------------|
A|---------------------------------|-------------------------------------|---------------------------------|
E|---------------------------------|-------------------------------------|---------------------------------|

E|-----------------15-----|-15---12--------12--------------------------------------14---|
B|-15---------------------|-----------15--------15---12---15---12--------12-------------|
G|------12----12----------|-----------------------------------------14--------14--------|
D|------------------------|-------------------------------------------------------------|
A|------------------------|-------------------------------------------------------------|
E|------------------------|-------------------------------------------------------------|

E|-17---15---14---15---14--------14----------------------------|-19---17---15------------------21---19---17------------------|
B|--------------------------17--------17---15---17---15---14---|----------------19---17---16------------------21---19---17---|
G|-------------------------------------------------------------|-------------------------------------------------------------|
D|-------------------------------------------------------------|-------------------------------------------------------------|
A|-------------------------------------------------------------|-------------------------------------------------------------|
E|-------------------------------------------------------------|-------------------------------------------------------------|

E|-22---21---19------------------22----22----|-22-----------------|---------|---------|
B|----------------22---21---19---------------|--------------------|---------|---------|
G|-------------------------------------------|-------%------%-----|-%-------|-%-------|
D|-------------------------------------------|-------%------%-----|-%-------|-%-------|
A|-------------------------------------------|--------------------|---------|---------|
E|-------------------------------------------|--------------------|---------|---------|

E|---------|---------|---------|---------|---------|---------------------------------------|
B|---------|---------|---------|---------|---------|---------------------------------------|
G|-%-------|-%-------|-%-------|-%-------|-%-------|---------------------------------------|
D|-%-------|-%-------|-%-------|-%-------|-%-------|---------------------------------------|
A|---------|---------|---------|---------|---------|---------------------------------------|
E|---------|---------|---------|---------|---------|-0----0---0---0----0----0----0----0----|

E|------------------------|---------|-----------------------------------------|-----------------------------------------|
B|------------------------|---------|-----------------------------------------|-----------------------------------------|
G|------%------%-----%----|-%-------|-----------------------------------------|-----------------------------------------|
D|------%------%-----%----|-%-------|-----------------------------------------|-----------------------------------------|
A|------------------------|---------|-----------------------------------------|-----------------------------------------|
E|-0----------------------|---------|-3----3----3----3----3----3----3----3----|-3----3----3----3----3----3----3----3----|

E|-----------------------------------------------------------|-----------------------------------------------------------|
B|-----------------------------------------------------------|-----------------------------------------------------------|
G|-----------------------------------------------------------|-----------------------------------------------------------|
D|-6---------------------------------------------------------|-6---------------------------------------------------------|
A|-4----4---4---4---4---4---4---4----4---4---4---4---4---4---|-4----4---4---4---4---4---4---4----4---4---4---4---4---4---|
E|-----------------------------------------------------------|-----------------------------------------------------------|

E|-----------------------------------------------------------|-----------------------------------------------------------|
B|-----------------------------------------------------------|-----------------------------------------------------------|
G|-----------------------------------------------------------|-----------------------------------------------------------|
D|-6---------------------------------------------------------|-6---------------------------------------------------------|
A|-4----4---4---4---4---4---4---4----4---4---4---4---4---4---|-4----4---4---4---4---4---4---4----4---4---4---4---4---4---|
E|-----------------------------------------------------------|-----------------------------------------------------------|

E|-----------------------------------------------------------|-----------------------------------------------------------|
B|-----------------------------------------------------------|-----------------------------------------------------------|
G|-----------------------------------------------------------|-----------------------------------------------------------|
D|-6---------------------------------------------------------|-6---------------------------------------------------------|
A|-4----4---4---4---4---4---4---4----4---4---4---4---4---4---|-4----4---4---4---4---4---4---4----4---4---4---4---4---4---|
E|-----------------------------------------------------------|-----------------------------------------------------------|

E|-----------------------------------------|-----------------------------------------------------|
B|-----------------------------------------|-----------------------------------------------------|
G|-----------------------------------------|---------------------------7----7---6----6--4----4---|
D|-----------------------------------------|-5----5---4----4--2----2---7----7---6----6--4----4---|
A|-0----10---9----0----9----7--------------|-5----5---4----4--2----2---5----5---4----4--2----2---|
E|-------------------------------10---9----|-3----3---2----2--0----0-----------------------------|

E|--------------------------------------------------|--------------------------------------------------|
B|--------------------------------------------------|--------------------------------------------------|
G|--------------------------------------------------|--------------------------------------------------|
D|--------------------------------------------------|--------------------------------------------------|
A|--------------------------------------------------|--------------------------------------------------|
E|-0----0---0---0----0----0----0----0---0---0---0---|-0----0---0---0----0----0----0----0---0---0---0---|

E|--------------------------------------------------|--------------------------------------------------|
B|--------------------------------------------------|--------------------------------------------------|
G|--------------------------------------------------|--------------------------------------------------|
D|--------------------------------------------------|--------------------------------------------------|
A|--------------------------------------------------|--------------------------------------------------|
E|-3----3---3---3----3----3----3----3---3---3---3---|-2----2---2---2----2----2----2----2---2---2---2---|

E|--------------------------------------------------|--------------------------------------------------|
B|--------------------------------------------------|--------------------------------------------------|
G|--------------------------------------------------|--------------------------------------------------|
D|--------------------------------------------------|--------------------------------------------------|
A|--------------------------------------------------|--------------------------------------------------|
E|-0----0---0---0----0----0----0----0---0---0---0---|-0----0---0---0----0----0----0----0---0---0---0---|

E|--------------------------------------------------|--------------------------------------------------|
B|--------------------------------------------------|--------------------------------------------------|
G|--------------------------------------------------|--------------------------------------------------|
D|--------------------------------------------------|--------------------------------------------------|
A|--------------------------------------------------|--------------------------------------------------|
E|-3----3---3---3----3----3----3----3---3---3---3---|-2----2---2---2----2----2----2----2---2---2---2---|

E|--------------------------------------------------|--------------------------------------------------|
B|--------------------------------------------------|--------------------------------------------------|
G|--------------------------------------------------|--------------------------------------------------|
D|--------------------------------------------------|--------------------------------------------------|
A|--------------------------------------------------|--------------------------------------------------|
E|-0----0---0---0----0----0----0----0---0---0---0---|-0----0---0---0----0----0----0----0---0---0---0---|

E|--------------------------------------------------|--------------------------------------------------|
B|--------------------------------------------------|--------------------------------------------------|
G|--------------------------------------------------|--------------------------------------------------|
D|--------------------------------------------------|--------------------------------------------------|
A|--------------------------------------------------|--------------------------------------------------|
E|-3----3---3---3----3----3----3----3---3---3---3---|-2----2---2---2----2----2----2----2---2---2---2---|

E|--------------------------------------------------|--------------------------------------------------|
B|--------------------------------------------------|--------------------------------------------------|
G|--------------------------------------------------|--------------------------------------------------|
D|--------------------------------------------------|--------------------------------------------------|
A|--------------------------------------------------|--------------------------------------------------|
E|-0----0---0---0----0----0----0----0---0---0---0---|-0----0---0---0----0----0----0----0---0---0---0---|

E|--------------------------------------------------|--------------------------------------------------|
B|--------------------------------------------------|--------------------------------------------------|
G|--------------------------------------------------|--------------------------------------------------|
D|--------------------------------------------------|--------------------------------------------------|
A|--------------------------------------------------|-2----2---2---2----2----2----2----2---2---2---2---|
E|-3----3---3---3----3----3----3----3---3---3---3---|--------------------------------------------------|

E|-----------------------------------------------------------|-----------------------------------------------------------|
B|-----------------------------------------------------------|-----------------------------------------------------------|
G|-----------------------------------------------------------|-----------------------------------------------------------|
D|-6---------------------------------------------------------|-6---------------------------------------------------------|
A|-4----4---4---4---4---4---4---4----4---4---4---4---4---4---|-4----4---4---4---4---4---4---4----4---4---4---4---4---4---|
E|-----------------------------------------------------------|-----------------------------------------------------------|

E|-------------------------------------------|-------------------------------------------|
B|-------------------------------------------|-------------------------------------------|
G|-------------------------------------------|-------------------------------------------|
D|-6-----------------------------------------|-4-----------------------------------------|
A|-4----4---4---4---4---4---4---4----4---4---|-2----2---2---2---2---2---2---2----2---2---|
E|-------------------------------------------|-------------------------------------------|

E|-----------------------------------------------------------|-----------------------------------------------------------|
B|-----------------------------------------------------------|-----------------------------------------------------------|
G|-----------------------------------------------------------|-----------------------------------------------------------|
D|-6---------------------------------------------------------|-6---------------------------------------------------------|
A|-4----4---4---4---4---4---4---4----4---4---4---4---4---4---|-4----4---4---4---4---4---4---4----4---4---4---4---4---4---|
E|-----------------------------------------------------------|-----------------------------------------------------------|

E|-------------------------------------------|-------------------------------------------|
B|-------------------------------------------|-------------------------------------------|
G|-------------------------------------------|-------------------------------------------|
D|-6-----------------------------------------|-4-----------------------------------------|
A|-4----4---4---4---4---4---4---4----4---4---|-2----2---2---2---2---2---2---2----2---2---|
E|-------------------------------------------|-------------------------------------------|

E|-----------------------------------------------------------|-----------------------------------------------------------|
B|-----------------------------------------------------------|-----------------------------------------------------------|
G|-----------------------------------------------------------|-----------------------------------------------------------|
D|-6---------------------------------------------------------|-6---------------------------------------------------------|
A|-4----4---4---4---4---4---4---4----4---4---4---4---4---4---|-4----4---4---4---4---4---4---4----4---4---4---4---4---4---|
E|-----------------------------------------------------------|-----------------------------------------------------------|

E|-------------------------------------------|-------------------------------------------|
B|-------------------------------------------|-------------------------------------------|
G|-------------------------------------------|-------------------------------------------|
D|-6-----------------------------------------|-4-----------------------------------------|
A|-4----4---4---4---4---4---4---4----4---4---|-2----2---2---2---2---2---2---2----2---2---|
E|-------------------------------------------|-------------------------------------------|

E|-----------------------------------------------------------|-----------------------------------------------------------|
B|-----------------------------------------------------------|-----------------------------------------------------------|
G|-----------------------------------------------------------|-----------------------------------------------------------|
D|-6---------------------------------------------------------|-6---------------------------------------------------------|
A|-4----4---4---4---4---4---4---4----4---4---4---4---4---4---|-4----4---4---4---4---4---4---4----4---4---4---4---4---4---|
E|-----------------------------------------------------------|-----------------------------------------------------------|

E|-------------------------------------------|-------------------------------------------|
B|-------------------------------------------|-------------------------------------------|
G|-------------------------------------------|-------------------------------------------|
D|-6-----------------------------------------|-4-----------------------------------------|
A|-4----4---4---4---4---4---4---4----4---4---|-2----2---2---2---2---2---2---2----2---2---|
E|-------------------------------------------|-------------------------------------------|

E|-----------------------------------|-----------------------------------|------------------------|
B|-----------------------------------|-----------------------------------|------------------------|
G|-4------4---5--4--2------2---4--5--|-4------4---5--4--2------2---4--5--|-4------4---5--4--2-----|
D|-----------------------------------|-----------------------------------|------------------------|
A|-----------------------------------|-----------------------------------|------------------------|
E|-----------------------------------|-----------------------------------|------------------------|

E|---------|-----------------------------------|-----------------------------------|
B|---------|-----------------------------------|-----------------------------------|
G|-4-------|-4------4---5--4--2------2---4--5--|-4------4---5--4--2------2---4--5--|
D|---------|-----------------------------------|-----------------------------------|
A|---------|-----------------------------------|-----------------------------------|
E|---------|-----------------------------------|-----------------------------------|

E|------------------------|---------|---------------------------------------|--------------------------------------------|
B|------------------------|---------|---------------------------------------|--------------------------------------------|
G|-4------4---5--4--2-----|-4-------|-4----4---3----3--4----4---5-----4-----|-9------------------------------------------|
D|------------------------|---------|-4----4---3----3--4----4---5-----4-----|-9-------------------------------------5----|
A|------------------------|---------|-2----2---1----1--2----2---3-----2-----|-7-------------------------------------5----|
E|------------------------|---------|---------------------------------------|-0----0---0---0----0----0----0----0----3----|

E|------------------------|------------------------|--------------------|--------------------------------------------|
B|------------------------|------------------------|--------------------|--------------------------------------------|
G|------------------------|------------------------|--------------------|--------------------------------------------|
D|-5------5----8-----4----|-4------4----7-----3----|-3------3----5------|---------------------------------------5----|
A|-5------5----8-----4----|-4------4----7-----3----|-3------3----5------|---------------------------------------5----|
E|-3------3----6-----2----|-2------2----5-----1----|-1------1----3------|-0----0---0---0----0----0----0----0----3----|

E|------------------------|------------------------|--------------------|--------------------------------------------|
B|------------------------|------------------------|--------------------|--------------------------------------------|
G|------------------------|------------------------|--------------------|--------------------------------------------|
D|-5------5----8-----4----|-4------4----7-----3----|-3------3----5------|---------------------------------------5----|
A|-5------5----8-----4----|-4------4----7-----3----|-3------3----5------|---------------------------------------5----|
E|-3------3----6-----2----|-2------2----5-----1----|-1------1----3------|-0----0---0---0----0----0----0----0----3----|

E|------------------------|------------------------|--------------------|--------------------------------------------|
B|------------------------|------------------------|--------------------|--------------------------------------------|
G|------------------------|------------------------|--------------------|--------------------------------------------|
D|-5------5----8-----4----|-4------4----7-----3----|-3------3----5------|---------------------------------------5----|
A|-5------5----8-----4----|-4------4----7-----3----|-3------3----5------|---------------------------------------5----|
E|-3------3----6-----2----|-2------2----5-----1----|-1------1----3------|-0----0---0---0----0----0----0----0----3----|

E|------------------------|------------------------|--------------------|--------------------------------------------|
B|------------------------|------------------------|--------------------|---------------------------------------8----|
G|------------------------|------------------------|--------------------|--------------------------------------------|
D|-5------5----8-----4----|-4------4----7-----3----|-3------3----5------|--------------------------------------------|
A|-5------5----8-----4----|-4------4----7-----3----|-3------3----5------|--------------------------------------------|
E|-3------3----6-----2----|-2------2----5-----1----|-1------1----3------|-0----0---0---0----0----0----0----0---------|

E|------------------------|------------------------|--------------------|-------------------|
B|-8------8----11----7----|-7------7----10----6----|-6------6----8------|-5-------5----8----|
G|------------------------|------------------------|--------------------|-------------------|
D|------------------------|------------------------|--------------------|-------------------|
A|------------------------|------------------------|--------------------|-------------------|
E|------------------------|------------------------|--------------------|-------------------|

E|------------------------|------------------------|--------------------|--------------6----|
B|-8------8----11----7----|-7------7----10----6----|-6------6----8------|-5-------5----8----|
G|------------------------|------------------------|--------------------|-------------------|
D|------------------------|------------------------|--------------------|-------------------|
A|------------------------|------------------------|--------------------|-------------------|
E|------------------------|------------------------|--------------------|-------------------|

E|-6------6----9-----5----|-5------5----8-----4----|-4------4----6------|-3-------3----6----|
B|-8------8----11----7----|-7------7----10----6----|-6------6----8------|-5-------5----8----|
G|------------------------|------------------------|--------------------|-------------------|
D|------------------------|------------------------|--------------------|-------------------|
A|------------------------|------------------------|--------------------|-------------------|
E|------------------------|------------------------|--------------------|-------------------|

E|-6------6----9-----5----|-5------5----8-----4----|-4------4----6------|---------------------------------------|
B|-8------8----11----7----|-7------7----10----6----|-6------6----8------|---------------------------------------|
G|------------------------|------------------------|--------------------|---------------------------------------|
D|------------------------|------------------------|--------------------|---------------------------------------|
A|------------------------|------------------------|--------------------|---------------------------------------|
E|------------------------|------------------------|--------------------|-0----0---0---0----0----0----0----0----|

E|-----------------------------------------------------------|-----------------------------------------------------------|
B|-----------------------------------------------------------|-----------------------------------------------------------|
G|-----------------------------------------------------------|-----------------------------------------------------------|
D|-6---------------------------------------------------------|-6---------------------------------------------------------|
A|-4----4---4---4---4---4---4---4----4---4---4---4---4---4---|-4----4---4---4---4---4---4---4----4---4---4---4---4---4---|
E|-----------------------------------------------------------|-----------------------------------------------------------|

E|-----------------------------------------------------------|-----------------------------------------|
B|-----------------------------------------------------------|-----------------------------------------|
G|-----------------------------------------------------------|-----------------------------------------|
D|-6---------------------------------------------------------|-----------------------------------------|
A|-4----4---4---4---4---4---4---4----4---4---4---4---4---4---|-0----10---9----0----9----7--------------|
E|-----------------------------------------------------------|-------------------------------10---9----|

E|-----------------------------------------------------------|-----------------------------------------------------------|
B|-----------------------------------------------------------|-----------------------------------------------------------|
G|-----------------------------------------------------------|-----------------------------------------------------------|
D|-6---------------------------------------------------------|-6---------------------------------------------------------|
A|-4----4---4---4---4---4---4---4----4---4---4---4---4---4---|-4----4---4---4---4---4---4---4----4---4---4---4---4---4---|
E|-----------------------------------------------------------|-----------------------------------------------------------|

E|-----------------------------------------------------------|-----------------------------------------|
B|-----------------------------------------------------------|-----------------------------------------|
G|-----------------------------------------------------------|-----------------------------------------|
D|-6---------------------------------------------------------|-----------------------------------------|
A|-4----4---4---4---4---4---4---4----4---4---4---4---4---4---|-0----10---9----0----9----7--------------|
E|-----------------------------------------------------------|-------------------------------10---9----|

E|-----------------------------------------------------------|-----------------------------------------------------------|
B|-----------------------------------------------------------|-----------------------------------------------------------|
G|-----------------------------------------------------------|-----------------------------------------------------------|
D|-7---------------------------------------------------------|-7---------------------------------------------------------|
A|-5----5---5---5---5---5---5---5----5---5---5---5---5---5---|-5----5---5---5---5---5---5---5----5---5---5---5---5---5---|
E|-----------------------------------------------------------|-----------------------------------------------------------|

E|-----------------------------------------------------------|-----------------------------------------|
B|-----------------------------------------------------------|-----------------------------------------|
G|-----------------------------------------------------------|-----------------------------------------|
D|-7---------------------------------------------------------|-----------------------------------------|
A|-5----5---5---5---5---5---5---5----5---5---5---5---5---5---|-0----10---9----0----9----7--------------|
E|-----------------------------------------------------------|-------------------------------10---9----|

E|-----------------------------------------------------------|-----------------------------------------------------------|
B|-----------------------------------------------------------|-----------------------------------------------------------|
G|-----------------------------------------------------------|-----------------------------------------------------------|
D|-6---------------------------------------------------------|-6---------------------------------------------------------|
A|-4----4---4---4---4---4---4---4----4---4---4---4---4---4---|-4----4---4---4---4---4---4---4----4---4---4---4---4---4---|
E|-----------------------------------------------------------|-----------------------------------------------------------|

E|-----------------------------------------------------------|-----------------------------------------|
B|-----------------------------------------------------------|-----------------------------------------|
G|-----------------------------------------------------------|-----------------------------------------|
D|-6---------------------------------------------------------|-----------------------------------------|
A|-4----4---4---4---4---4---4---4----4---4---4---4---4---4---|-0----10---9----0----9----7--------------|
E|-----------------------------------------------------------|-------------------------------10---9----|

E|-------------------------------------|---------------|---------------|---------|---------|
B|-------------------------------------|---------------|---------------|---------|---------|
G|-------------------7-----6-----4-----|-6------6------|-6------6------|-6-------|-6-------|
D|-5-----4-----2-----7-----6-----4-----|-6------6------|-6------6------|-6-------|-6-------|
A|-5-----4-----2-----5-----4-----2-----|-4------4------|-4------4------|-4-------|-4-------|
E|-3-----2-----0-----------------------|---------------|---------------|---------|---------|

E|-----------------------------------------------------------|-----------------------------------------------------------|
B|-----------------------------------------------------------|-----------------------------------------------------------|
G|-----------------------------------------------------------|-----------------------------------------------------------|
D|-6---------------------------------------------------------|-6---------------------------------------------------------|
A|-4----4---4---4---4---4---4---4----4---4---4---4---4---4---|-4----4---4---4---4---4---4---4----4---4---4---4---4---4---|
E|-----------------------------------------------------------|-----------------------------------------------------------|

E|-----------------------------------------------------------|-----------------------------------------|
B|-----------------------------------------------------------|-----------------------------------------|
G|-----------------------------------------------------------|------4----2----0----4----0--------------|
D|-6---------------------------------------------------------|-----------------------------------------|
A|-4----4---4---4---4---4---4---4----4---4---4---4---4---4---|-0----10---9----0----10---7--------------|
E|-----------------------------------------------------------|-------------------------------10---9----|

E|-------------------------------------|---------|
B|-------------------------------------|---------|
G|-------------------7-----6-----4-----|-6-------|
D|-5-----4-----2-----7-----6-----4-----|-6-------|
A|-5-----4-----2-----5-----4-----2-----|-4-------|
E|-3-----2-----0-----------------------|---------|
Metallica - Disposable Heros
Metallica - Disposable Heros.gp3