Metallica - Don't Tread On Me

Metallica



Title: Don't Tread On Me
Album: 
Artist: 
Author: Metallica

Track 1: Guitar 1
E|----------------|----------------|-------------------------------------------------|
B|----------------|----------------|-------------------------------------------------|
G|-%-------%------|-%-------%------|----------------9----9----9----------------------|
D|-%-------%------|-%-------%------|-9----9----9-------------------11----------------|
A|----------------|----------------|-------------------------------------12----7-----|
E|----------------|----------------|-------------------------------------------------|

E|-------------------------------------------------|-------------------------------------------------|
B|-------------------------------------------------|-------------------------------------------------|
G|----------------9----9----9----11----------------|----------------12---12---12---11----------------|
D|-9----9----9-------------------------13----9-----|-12---12---12------------------------12----------|
A|-------------------------------------------------|-------------------------------------------12----|
E|-------------------------------------------------|-------------------------------------------------|

E|-------------------------------|---------------------|----------------|----------------------------------------|
B|-------------------------------|---------------------|----------------|----------------------------------------|
G|-------------------------------|-------9-------------|----------------|-----------------------------%-----%----|
D|----------------10---10---10---|-9-----------9-------|-9-------9------|-----------------------------%-----%----|
A|-10---10---10------------------|---------------------|----------------|-2----2----2------2-----2---------------|
E|-------------------------------|---------------------|----------------|-0----0----0------0-----0---------------|

E|----------------------------------------|-------------------------------------------------|
B|----------------------------------------|-------------------------------------------------|
G|-----------------------------%-----%----|-------------------------------------------------|
D|-----------------------------%-----%----|----------------3---------------------3----------|
A|-2----2----2------2-----2---------------|-2----2----2----1-----3----2-----2----1-----3----|
E|-0----0----0------0-----0---------------|-0----0----0----------1----0-----0----------1----|

E|-------------------------------------------------|-------------------------------------------------|
B|-------------------------------------------------|-------------------------------------------------|
G|-------------------------------------------------|-------------------------------------------------|
D|----------------3--------------------------------|----------------3---------------------3----------|
A|-2----2----2----1----3----2------3----5-----3----|-2----2----2----1-----3----2-----2----1-----3----|
E|-0----0----0---------1----0------1----3-----1----|-0----0----0----------1----0-----0----------1----|

E|-------------------------------------------------|-------------------------------------------------|
B|-------------------------------------------------|-------------------------------------------------|
G|-------------------------------------------------|-------------------------------------------------|
D|----------------3--------------------------------|----------------3---------------------3----------|
A|-2----2----2----1-----3----2-----3----5-----3----|-2----2----2----1-----3----2-----2----1-----3----|
E|-0----0----0----------1----0-----1----3-----1----|-0----0----0----------1----0-----0----------1----|

E|-------------------------------------------------|-------------------------------------------------|
B|-------------------------------------------------|-------------------------------------------------|
G|-------------------------------------------------|-------------------------------------------------|
D|----------------3--------------------------------|----------------3---------------------3----------|
A|-2----2----2----1-----3----2-----3----5-----3----|-2----2----2----1-----3----2-----2----1-----3----|
E|-0----0----0----------1----0-----1----3-----1----|-0----0----0----------1----0-----0----------1----|

E|-------------------------------------------------|-------------------------------------------------|
B|-------------------------------------------------|-------------------------------------------------|
G|-------------------------------------------------|-------------------------------------------------|
D|----------------3--------------------------------|----------------3---------------------3----------|
A|-2----2----2----1-----3----2-----3----5-----3----|-2----2----2----1-----3----2-----2----1-----3----|
E|-0----0----0----------1----0-----1----3-----1----|-0----0----0----------1----0-----0----------1----|

E|-------------------------------------------------|-------------------------------------------------|
B|-------------------------------------------------|-------------------------------------------------|
G|-------------------------------------------------|-------------------------------------------------|
D|----------------3--------------------------------|----------------3---------------------3----------|
A|-2----2----2----1-----3----2-----3----5-----3----|-2----2----2----1-----3----2-----2----1-----3----|
E|-0----0----0----------1----0-----1----3-----1----|-0----0----0----------1----0-----0----------1----|

E|-------------------------------------------------|----------------------------------------|
B|-------------------------------------------------|----------------------------------------|
G|-------------------------------------------------|-----------------------------%-----%----|
D|----------------3--------------------------------|-----------------------------%-----%----|
A|-2----2----2----1-----3----2-----3----5-----3----|-2----2----2------2-----2---------------|
E|-0----0----0----------1----0-----1----3-----1----|-0----0----0------0-----0---------------|

E|----------------------------------------|----------------------------------------|
B|----------------------------------------|----------------------------------------|
G|-----------------------------%-----%----|-----------------------------%-----%----|
D|-----------------------------%-----%----|-----------------------------%-----%----|
A|-2----2----2------3-----3---------------|-4----4----4------5-----5---------------|
E|-0----0----0------1-----1---------------|-2----2----2------3-----3---------------|

E|--------------------------------------------|----------------------------------------|
B|--------------------------------------------|----------------------------------------|
G|--------------------------------------------|-----------------------------%-----%----|
D|----------------------------------7----4----|-----------------------------%-----%----|
A|-6----6----6------7-----8----9----5----2----|-2----2----2------2-----2---------------|
E|-4----4----4------5-----6----7--------------|-0----0----0------0-----0---------------|

E|----------------------------------------|----------------------------------------|
B|----------------------------------------|----------------------------------------|
G|-----------------------------%-----%----|-----------------------------%-----%----|
D|-----------------------------%-----%----|-----------------------------%-----%----|
A|-2----2----2------3-----3---------------|-4----4----4------5-----5---------------|
E|-0----0----0------1-----1---------------|-2----2----2------3-----3---------------|

E|--------------------------------------------|-------------------------------------------------|
B|--------------------------------------------|-------------------------------------------------|
G|--------------------------------------------|-------------------------------------------------|
D|------------------------3----4----7----4----|----------------3---------------------3----------|
A|-6----6----6------7-----1----2----5----2----|-2----2----2----1-----3----2----2-----1-----3----|
E|-4----4----4------5-------------------------|-0----0----0----------1----0----0-----------1----|

E|-------------------------------------------------|-------------------------------------------------------------------|
B|-------------------------------------------------|-------------------------------------------------------------------|
G|-------------------------------------------------|-------------------------------------------------------------------|
D|----------------3--------------------------------|-------------------4-----------------------------------------------|
A|-2----2----2----1-----3----2-----3----5-----3----|-2----2---2---2----2----2----2----2----2---2---2----5----2----2----|
E|-0----0----0----------1----0-----1----3-----1----|-0----0---0---0---------0----0----0----0---0---0----3----0----0----|

E|----------------------------------------------------------------|-----------------------------------------------------|
B|----------------------------------------------------------------|-----------------------------------------------------|
G|----------------------------------------------------------------|-----------------------------------------------------|
D|----------------------------------------------------------------|-----------------------------------------------------|
A|-2----2---2---2----7----2----2--------------0-------------------|-2-----2----2----2----2----2-----2----2----2----2----|
E|-0----0---0---0----5----0----0----6----0---------0----3----0----|-0-----0----0----0----0----0-----0----0----0----0----|

E|------------------------------------------------|-------------------------------------------------|
B|------------------------------------------------|-------------------------------------------------|
G|------------------------------------------------|------%---------%--------------------------------|
D|------------------------------------------------|-7----%----7----%----7----7----7------7-----7----|
A|-2-----2----2----2----2----2-------------7------|-5---------5---------5----5----5------5-----5----|
E|-0-----0----0----0----0----0-----2---3---5------|-------------------------------------------------|

E|---------------------------------------------|-----------------------------------------------------|
B|---------------------------------------------|-----------------------------------------------------|
G|------%---------%-----%----------------------|-----------------------------------------------------|
D|------%---------%-----%----------2-----3-----|-----------------------------------------------------|
A|-5---------5---------------6-----0-----1-----|-2-----2----2----2----2----2-----2----2----2----2----|
E|-3---------3---------------4-----------------|-0-----0----0----0----0----0-----0----0----0----0----|

E|------------------------------------------------|-------------------------------------------------|
B|------------------------------------------------|-------------------------------------------------|
G|------------------------------------------------|------%---------%--------------------------------|
D|------------------------------------------------|-7----%----7----%----7----7----7------7-----7----|
A|-2-----2----2----2----2----2-------------7------|-5---------5---------5----5----5------5-----5----|
E|-0-----0----0----0----0----0-----2---3---5------|-------------------------------------------------|

E|---------------------------------------------|-------------------------------------------------------------------|
B|---------------------------------------------|-------------------------------------------------------------------|
G|------%---------%-----%----------------------|-------------------------------------------------------------------|
D|------%---------%-----%----------------------|-------------------4-----------------------------------------------|
A|-5---------5---------------6-----7-----8-----|-2----2---2---2----2----2----2----2----2---2---2----5----2----2----|
E|-3---------3---------------4-----5-----6-----|-0----0---0---0---------0----0----0----0---0---0----3----0----0----|

E|-------------------------------------------------|-------------------------------------------------|
B|-------------------------------------------------|-------------------------------------------------|
G|-------------------------------------------------|-------------------------------------------------|
D|----------------3---------------------3----------|----------------3--------------------------------|
A|-2----2----2----1-----3----2-----2----1-----3----|-2----2----2----1-----3----2-----3----5-----3----|
E|-0----0----0----------1----0-----0----------1----|-0----0----0----------1----0-----1----3-----1----|

E|-------------------------------------------------|-------------------------------------------------|
B|-------------------------------------------------|-------------------------------------------------|
G|-------------------------------------------------|-------------------------------------------------|
D|----------------3---------------------3----------|----------------3--------------------------------|
A|-2----2----2----1-----3----2-----2----1-----3----|-2----2----2----1-----3----2-----3----5-----3----|
E|-0----0----0----------1----0-----0----------1----|-0----0----0----------1----0-----1----3-----1----|

E|----------------------------------------|----------------------------------------|
B|----------------------------------------|----------------------------------------|
G|-----------------------------%-----%----|-----------------------------%-----%----|
D|-----------------------------%-----%----|-----------------------------%-----%----|
A|-2----2----2------2-----2---------------|-2----2----2------3-----3---------------|
E|-0----0----0------0-----0---------------|-0----0----0------1-----1---------------|

E|----------------------------------------|--------------------------------------------|
B|----------------------------------------|--------------------------------------------|
G|-----------------------------%-----%----|--------------------------------------------|
D|-----------------------------%-----%----|----------------------------------7---------|
A|-4----4----4------5-----5---------------|-6----6----6------7-----8----9----5----9----|
E|-2----2----2------3-----3---------------|-4----4----4------5-----6----7---------7----|

E|----------------------------------------|----------------------------------------|
B|----------------------------------------|----------------------------------------|
G|-----------------------------%-----%----|-----------------------------%-----%----|
D|-----------------------------%-----%----|-----------------------------%-----%----|
A|-2----2----2------2-----2---------------|-2----2----2------3-----3---------------|
E|-0----0----0------0-----0---------------|-0----0----0------1-----1---------------|

E|----------------------------------------|--------------------------------------------|
B|----------------------------------------|--------------------------------------------|
G|-----------------------------%-----%----|--------------------------------------------|
D|-----------------------------%-----%----|----------------------------------7---------|
A|-4----4----4------5-----5---------------|-6----6----6------7-----8----9----5----9----|
E|-2----2----2------3-----3---------------|-4----4----4------5-----6----7---------7----|

E|-------------------------------------------------|-------------------------------------------------|
B|-------------------------------------------------|-------------------------------------------------|
G|-------------------------------------------------|-------------------------------------------------|
D|----------------3---------------------3----------|----------------3--------------------------------|
A|-2----2----2----1-----3----2-----2----1-----3----|-2----2----2----1-----3----2-----3----5-----3----|
E|-0----0----0----------1----0-----0----------1----|-0----0----0----------1----0-----1----3-----1----|

E|-------------------------------------------------------------------|----------------------------------------------------------------|
B|-------------------------------------------------------------------|----------------------------------------------------------------|
G|-------------------------------------------------------------------|----------------------------------------------------------------|
D|-------------------------------------------------------------------|----------------------------------------------------------------|
A|-2----2---2---2----9----2----2----2----2---2---2----5----2----2----|-2----2---2---2----7----2----2--------------0-------------------|
E|-0----0---0---0----7----0----0----0----0---0---0----3----0----0----|-0----0---0---0----5----0----0----6----0---------0----3----0----|

E|-----------------------------------------------------|------------------------------------------------|
B|-----------------------------------------------------|------------------------------------------------|
G|-----------------------------------------------------|------------------------------------------------|
D|-----------------------------------------------------|------------------------------------------------|
A|-2-----2----2----2----2----2-----2----2----2----2----|-2-----2----2----2----2----2-------------7------|
E|-0-----0----0----0----0----0-----0----0----0----0----|-0-----0----0----0----0----0-----2---3---5------|

E|-------------------------------------------------|---------------------------------------------|
B|-------------------------------------------------|---------------------------------------------|
G|------%---------%--------------------------------|------%---------%-----%----------------------|
D|-7----%----7----%----7----7----7------7-----7----|------%---------%-----%----------------------|
A|-5---------5---------5----5----5------5-----5----|-5---------5---------------6-----7-----8-----|
E|-------------------------------------------------|-3---------3---------------4-----5-----6-----|

E|-----------------------------------------------------|------------------------------------------------|
B|-----------------------------------------------------|------------------------------------------------|
G|-----------------------------------------------------|------------------------------------------------|
D|-----------------------------------------------------|------------------------------------------------|
A|-2-----2----2----2----2----2-----2----2----2----2----|-2-----2----2----2----2----2-------------7------|
E|-0-----0----0----0----0----0-----0----0----0----0----|-0-----0----0----0----0----0-----2---3---5------|

E|-------------------------------------------------|---------------------------------------------|
B|-------------------------------------------------|---------------------------------------------|
G|------%---------%--------------------------------|------%---------%-----%----------------------|
D|-7----%----7----%----7----7----7------7-----7----|------%---------%-----%----------------------|
A|-5---------5---------5----5----5------5-----5----|-5---------5---------------6-----7-----8-----|
E|-------------------------------------------------|-3---------3---------------4-----5-----6-----|

E|-------------------------------------------------------------------|--------------------------------------------|
B|-------------------------------------------------------------------|--------------------------------------------|
G|-------------------------------------------------------------------|--------------------------------------------|
D|-------------------------------------------------------------------|--------------------------------------------|
A|-2----2---2---2----9----2----2----2----2---2---2----5----2----2----|-5----5---5---5----5------8-----5-----3-----|
E|-0----0---0---0----7----0----0----0----0---0---0----3----0----0----|-3----3---3---3----3------6-----3-----1-----|

E|--------------|-----------------------------|----------------------------------------|
B|--------------|-----------------------------|---------------12----11---10----10------|
G|-%------%-----|-12-----11-----12-----11-----|-12-----11--------------------------%---|
D|-%------%-----|-----------------------------|------------------------------------%---|
A|--------------|-----------------------------|----------------------------------------|
E|--------------|-----------------------------|----------------------------------------|

E|---------------12-----------------------12---|----------------------------------------------------|
B|-15-----15----------15---12--------12--------|-15---12--------------------------14----12----------|
G|------------------------------14-------------|-----------14---12--------12--14--14----12----------|
D|---------------------------------------------|---------------------14----------------------14-----|
A|---------------------------------------------|----------------------------------------------------|
E|---------------------------------------------|----------------------------------------------------|

E|---------------------------------------------|---------------------------------------------|
B|------12--------14----------12---------------|------12--------14----------12---------------|
G|-14--------12---14-----14--------14---12-----|-14--------14---14-----14--------14---12-----|
D|---------------------------------------------|---------------------------------------------|
A|---------------------------------------------|---------------------------------------------|
E|---------------------------------------------|---------------------------------------------|

E|----------15----15--14--15--14--12--14--12--------------------------------------------------|
B|--------------------------------------------14--15--14-12---14--12-10-12--------------------|
G|-%----%-------------------------------------------------------------------14--12-14-12------|
D|-%----%---------------------------------------------------------------------------------14--|
A|--------------------------------------------------------------------------------------------|
E|--------------------------------------------------------------------------------------------|

E|-----------------------------------------------------|-17--12--12--12--12--12--12--12------------------------------------------------------------------------|
B|-14---12--------14---12--------14---12---------------|---------------------------------17---12---13---12-----------------------------------------------------|
G|-14---12--------14---12--------14---12---------------|-----------------------------------------------------12--17-12-12--12--12--12--------------------------|
D|-----------14-------------14-------------14---14-----|-------------------------------------------------------------------------------12--17--12--12--12--12--|
A|-----------------------------------------------------|-------------------------------------------------------------------------------------------------------|
E|-----------------------------------------------------|-------------------------------------------------------------------------------------------------------|

E|------------------------------------------------------------|----------------------------------------------------------------------------------------------|
B|------------------------------------------------------------|-------------------------------------------------------------------------------------13-------|
G|-------------------------------------------12---------------|-12--9-------------------13--10--------------11--12--9-------------------13--10------13---14--|
D|------------------------------------------------14-----14---|---------10--9---10--10----------11--10--11--------------10--9---10--10----------11-----------|
A|-12--17--12--10--12---10------10---12--14-------------------|----------------------------------------------------------------------------------------------|
E|--------------------------12--------------------------------|----------------------------------------------------------------------------------------------|

E|-------------------------------------------------------------|---------------------19----------13----14----|
B|-16---14--------16---14--------17---15--------17---15--------|------19--------17---------17----16----17----|
G|-16---14--------16---14--------17---15--------17---15--------|-16--------19--------------------------------|
D|-----------16-------------16-------------17-------------17---|---------------------------------------------|
A|-------------------------------------------------------------|---------------------------------------------|
E|-------------------------------------------------------------|---------------------------------------------|

E|-22------22------|-------------------------------------------------------------------|
B|-----------------|-------------------------------------------------------------------|
G|-----------------|-------------------------------------------------------------------|
D|-----------------|-------------------------------------------------------------------|
A|-----------------|-2----2---2---2----5----2----2----2----2---2---2----5----2----2----|
E|-----------------|-0----0---0---0----3----0----0----0----0---0---0----3----0----0----|

E|----------------------------------------------------------------|-------------------------------------------------------------------|
B|----------------------------------------------------------------|-------------------------------------------------------------------|
G|----------------------------------------------------------------|-------------------------------------------------------------------|
D|----------------------------------------------------------------|-------------------------------------------------------------------|
A|-2----2---2---2----7----2----2-------------------0--------------|-2----2---2---2----5----2----2----2----2---2---2----5----2----2----|
E|-0----0---0---0----5----0----0----6----0----0---------0----0----|-0----0---0---0----3----0----0----0----0---0---0----3----0----0----|

E|----------------------------------------------------------------|-------------------------------------------------------------------|
B|----------------------------------------------------------------|-------------------------------------------------------------------|
G|----------------------------------------------------------------|-------------------------------------------------------------------|
D|----------------------------------------------------------------|-------------------------------------------------------------------|
A|-2----2---2---2----7----2----2--------------0-------------------|-2----2---2---2----5----2----2----2----2---2---2----5----2----2----|
E|-0----0---0---0----5----0----0----6----0---------0----3----0----|-0----0---0---0----3----0----0----0----0---0---0----3----0----0----|

E|-----------------------------------------------------|------------------------------------------------|
B|-----------------------------------------------------|------------------------------------------------|
G|-----------------------------------------------------|------------------------------------------------|
D|-----------------------------------------------------|------------------------------------------------|
A|-2-----2----2----2----2----2-----2----2----2----2----|-2-----2----2----2----2----2-------------7------|
E|-0-----0----0----0----0----0-----0----0----0----0----|-0-----0----0----0----0----0-----2---3---5------|

E|-------------------------------------------------|---------------------------------------------|
B|-------------------------------------------------|---------------------------------------------|
G|------%---------%--------------------------------|------%---------%-----%----------------------|
D|-7----%----7----%----7----7----7------7-----7----|------%---------%-----%----------------------|
A|-5---------5---------5----5----5------5-----5----|-5---------5---------------6-----7-----8-----|
E|-------------------------------------------------|-3---------3---------------4-----5-----6-----|

E|----------------------------------------|----------------------------------------|
B|----------------------------------------|----------------------------------------|
G|-----------------------------%-----%----|-----------------------------%-----%----|
D|-----------------------------%-----%----|-----------------------------%-----%----|
A|-2----2----2------2-----2---------------|-2----2----2------3-----3---------------|
E|-0----0----0------0-----0---------------|-0----0----0------1-----1---------------|

E|----------------------------------------|--------------------------------------------|
B|----------------------------------------|--------------------------------------------|
G|-----------------------------%-----%----|--------------------------------------------|
D|-----------------------------%-----%----|----------------------------------7---------|
A|-4----4----4------5-----5---------------|-6----6----6------7-----8----9----5----9----|
E|-2----2----2------3-----3---------------|-4----4----4------5-----6----7---------7----|

E|-----------------------------------------------------|------------------------------------------------|
B|-----------------------------------------------------|------------------------------------------------|
G|-----------------------------------------------------|------------------------------------------------|
D|-----------------------------------------------------|------------------------------------------------|
A|-2-----2----2----2----2----2-----2----2----2----2----|-2-----2----2----2----2----2-------------7------|
E|-0-----0----0----0----0----0-----0----0----0----0----|-0-----0----0----0----0----0-----2---3---5------|

E|-------------------------------------------------|---------------------------------------------|
B|-------------------------------------------------|---------------------------------------------|
G|------%---------%--------------------------------|------%---------%-----%----------------------|
D|-7----%----7----%----7----7----7------7-----7----|------%---------%-----%----------------------|
A|-5---------5---------5----5----5------5-----5----|-5---------5---------------6-----7-----8-----|
E|-------------------------------------------------|-3---------3---------------4-----5-----6-----|

E|-----------------------------------------------------|------------------------------------------------|
B|-----------------------------------------------------|------------------------------------------------|
G|-----------------------------------------------------|------------------------------------------------|
D|-----------------------------------------------------|------------------------------------------------|
A|-2-----2----2----2----2----2-----2----2----2----2----|-2-----2----2----2----2----2-------------7------|
E|-0-----0----0----0----0----0-----0----0----0----0----|-0-----0----0----0----0----0-----2---3---5------|

E|-------------------------------------------------|---------------------------------------------|
B|-------------------------------------------------|---------------------------------------------|
G|------%---------%--------------------------------|------%---------%-----%----------------------|
D|-7----%----7----%----7----7----7------7-----7----|------%---------%-----%----------------------|
A|-5---------5---------5----5----5------5-----5----|-5---------5---------------6-----7-----8-----|
E|-------------------------------------------------|-3---------3---------------4-----5-----6-----|

E|-------------------------------------------------------------------|--------------------------------------------|
B|-------------------------------------------------------------------|--------------------------------------------|
G|-------------------------------------------------------------------|--------------------------------------------|
D|-------------------4-----------------------------------------------|--------------------------------------------|
A|-2----2---2---2----2----2----2----2----2---2---2----5----2----2----|-5----5---5---5----5------8-----5-----3-----|
E|-0----0---0---0---------0----0----0----0---0---0----3----0----0----|-3----3---3---3----3------6-----3-----1-----|
Metallica - Don't Tread On Me
Metallica - Don't Tread On Me.gp3