Metallica - Don_'t Tread On Me (2)

Metallica - Don_'t Tread On Me (2)

Metallica



Title: Don't Tread On Me
Album: Black Album
Artist: Metallica
Author: 

Track 1: Guitar 1
E|-----------------------------------------|-----------------------------------------|
B|-----------------------------------------|-----------------------------------------|
G|----------------------------------%------|----------------------------------%------|
D|-2----2----2----2------2-----2----%------|-2----2----2----2------2-----2----%------|
A|-2----2----2----2------2-----2-----------|-2----2----2----2------2-----2-----------|
E|-0----0----0----0------0-----0-----------|-0----0----0----0------0-----0-----------|

E|-----------------------------------------|-----------------------------------------|
B|-----------------------------------------|-----------------------------------------|
G|----------------------------------%------|----------------------------------%------|
D|-2----2----2----2------2-----2----%------|-2----2----2----2------4-----4----%------|
A|-2----2----2----2------2-----2-----------|-2----2----2----2------4-----4-----------|
E|-0----0----0----0------0-----0-----------|-0----0----0----0------2-----2-----------|

E|-----------------------------------------|-----------------------|---------------------------|
B|-----------------------------------------|-----------------------|---------------------------|
G|----------------------------------%------|-----------------------|---------------------------|
D|-7----7----7----7------7-----7----%------|-3----3----3----3------|-2-----2----2------2-------|
A|-7----7----7----7------7-----7-----------|-3----3----3----3------|-2-----2----2------2-------|
E|-5----5----5----5------5-----5-----------|-1----1----1----1------|-0-----0----0------0-------|

E|-----------------|-----------------------------------------|-----------------------------------------|
B|-----------------|-----------------------------------------|-----------------------------------------|
G|-----------------|----------------------------------%------|----------------------------------%------|
D|-2-------2-------|-2----2----2----2------2-----2----%------|-2----2----2----2------2-----2----%------|
A|-2-------2-------|-2----2----2----2------2-----2-----------|-2----2----2----2------2-----2-----------|
E|-0-------0-------|-0----0----0----0------0-----0-----------|-0----0----0----0------0-----0-----------|

E|-----------------------------------------|-----------------------------------------|
B|-----------------------------------------|-----------------------------------------|
G|----------------------------------%------|----------------------------------%------|
D|-2----2----2----2------2-----2----%------|-2----2----2----2------2-----2----%------|
A|-2----2----2----2------2-----2-----------|-2----2----2----2------2-----2-----------|
E|-0----0----0----0------0-----0-----------|-0----0----0----0------0-----0-----------|

E|-----------------------------------------|-----------------------------------------|
B|-----------------------------------------|-----------------------------------------|
G|----------------------------------%------|----------------------------------%------|
D|-2----2----2----2------2-----2----%------|-2----2----2----2------2-----2----%------|
A|-2----2----2----2------2-----2-----------|-2----2----2----2------2-----2-----------|
E|-0----0----0----0------0-----0-----------|-0----0----0----0------0-----0-----------|

E|-------------------------------------------------|-------------------------------------------------|
B|-------------------------------------------------|-------------------------------------------------|
G|----------------3---------------------3----------|----------------3--------------------------------|
D|-2----2----2----3-----3----2-----2----3-----3----|-2----2----2----3-----3----2-----3----5-----3----|
A|-2----2----2----1-----3----2-----2----1-----3----|-2----2----2----1-----3----2-----3----5-----3----|
E|-0----0----0----------1----0-----0----------1----|-0----0----0----------1----0-----1----3-----1----|

E|-------------------------------------------------|-------------------------------------------------|
B|-------------------------------------------------|-------------------------------------------------|
G|----------------3---------------------3----------|----------------3--------------------------------|
D|-2----2----2----3-----3----2-----2----3-----3----|-2----2----2----3-----3----2-----3----5-----3----|
A|-2----2----2----1-----3----2-----2----1-----3----|-2----2----2----1-----3----2-----3----5-----3----|
E|-0----0----0----------1----0-----0----------1----|-0----0----0----------1----0-----1----3-----1----|

E|-------------------------------------------------|-------------------------------------------------|
B|-------------------------------------------------|-------------------------------------------------|
G|----------------3---------------------3----------|----------------3--------------------------------|
D|-2----2----2----3-----3----2-----2----3-----3----|-2----2----2----3-----3----2-----3----5-----3----|
A|-2----2----2----1-----3----2-----2----1-----3----|-2----2----2----1-----3----2-----3----5-----3----|
E|-0----0----0----------1----0-----0----------1----|-0----0----0----------1----0-----1----3-----1----|

E|-------------------------------------------------|-------------------------------------------------|
B|-------------------------------------------------|-------------------------------------------------|
G|----------------3---------------------3----------|----------------3--------------------------------|
D|-2----2----2----3-----3----2-----2----3-----3----|-2----2----2----3-----3----2-----3----5-----3----|
A|-2----2----2----1-----3----2-----2----1-----3----|-2----2----2----1-----3----2-----3----5-----3----|
E|-0----0----0----------1----0-----0----------1----|-0----0----0----------1----0-----1----3-----1----|

E|-----------------------------------------|-----------------------------------------|
B|-----------------------------------------|-----------------------------------------|
G|----------------------------------%------|----------------------------------%------|
D|-2----2----2----2------2-----2----%------|-2----2----2----2------3-----3----%------|
A|-2----2----2----2------2-----2-----------|-2----2----2----2------3-----3-----------|
E|-0----0----0----0------0-----0-----------|-0----0----0----0------1-----1-----------|

E|-----------------------------------------|-------------------------------------------------|
B|-----------------------------------------|-------------------------------------------------|
G|----------------------------------%------|-----------------------------3----4----7----4----|
D|-4----4----4----4------5-----5----%------|-6----6----6----6------7-----3----4----7----4----|
A|-4----4----4----4------5-----5-----------|-6----6----6----6------7-----1----2----5----2----|
E|-2----2----2----2------3-----3-----------|-4----4----4----4------5-------------------------|

E|-------------------------------------------------|-------------------------------------------------|
B|-------------------------------------------------|-------------------------------------------------|
G|----------------3---------------------3----------|----------------3--------------------------------|
D|-2----2----2----3-----3----2-----2----3-----3----|-2----2----2----3-----3----2-----3----5-----3----|
A|-2----2----2----1-----3----2-----2----1-----3----|-2----2----2----1-----3----2-----3----5-----3----|
E|-0----0----0----------1----0-----0----------1----|-0----0----0----------1----0-----1----3-----1----|

E|-------------------------------------------------|-------------------------------------------------|
B|-------------------------------------------------|-------------------------------------------------|
G|----------------3---------------------3----------|----------------3--------------------------------|
D|-2----2----2----3-----3----2-----2----3-----3----|-2----2----2----3-----3----2-----3----5-----3----|
A|-2----2----2----1-----3----2-----2----1-----3----|-2----2----2----1-----3----2-----3----5-----3----|
E|-0----0----0----------1----0-----0----------1----|-0----0----0----------1----0-----1----3-----1----|

E|-------------------------------------------------|-------------------------------------------------|
B|-------------------------------------------------|-------------------------------------------------|
G|----------------3---------------------3----------|----------------3--------------------------------|
D|-2----2----2----3-----3----2-----2----3-----3----|-2----2----2----3-----3----2-----3----5-----3----|
A|-2----2----2----1-----3----2-----2----1-----3----|-2----2----2----1-----3----2-----3----5-----3----|
E|-0----0----0----------1----0-----0----------1----|-0----0----0----------1----0-----1----3-----1----|

E|-------------------------------------------------------------------|----------------------------------------------------------------|
B|-------------------------------------------------------------------|----------------------------------------------------------------|
G|-------------------4-----------------------------------------------|----------------------------------3-----------------------------|
D|-2----2---2---2----4----2----2----2----2---2---2----5----2----2----|-2----2---2---2----7----2----2----3----2----7----2----5----2----|
A|-2----2---2---2----2----2----2----2----2---2---2----5----2----2----|-2----2---2---2----7----2----2----1----2----7----2----5----2----|
E|-0----0---0---0---------0----0----0----0---0---0----3----0----0----|-0----0---0---0----5----0----0---------0----5----0----3----0----|

E|-----------------------------------------------------|------------------------------------------------|
B|-----------------------------------------------------|------------------------------------------------|
G|-----------------------------------------------------|------------------------------------------------|
D|-2-----2----2----2----2----2-----2----2----2----2----|-2-----2----2----2----2----2-----4---5---7------|
A|-2-----2----2----2----2----2-----2----2----2----2----|-2-----2----2----2----2----2-----4---5---7------|
E|-0-----0----0----0----0----0-----0----0----0----0----|-0-----0----0----0----0----0-----2---3---5------|

E|-------------------------------------------------|---------------------------------------------|
B|-------------------------------------------------|---------------------------------------------|
G|-7----%----7----%----7----7----7------7-----7----|------%---------%----------------------3-----|
D|-7----%----7----%----7----7----7------7-----7----|-5----%----5----%------6-----7----7----3-----|
A|-5---------5---------5----5----5------5-----5----|-5---------5-----------6-----7----7----1-----|
E|-------------------------------------------------|-3---------3-----------4-----5----5----------|

E|-----------------------------------------------------|------------------------------------------------|
B|-----------------------------------------------------|------------------------------------------------|
G|-----------------------------------------------------|------------------------------------------------|
D|-2-----2----2----2----2----2-----2----2----2----2----|-2-----2----2----2----2----2-----4---5---7------|
A|-2-----2----2----2----2----2-----2----2----2----2----|-2-----2----2----2----2----2-----4---5---7------|
E|-0-----0----0----0----0----0-----0----0----0----0----|-0-----0----0----0----0----0-----2---3---5------|

E|-------------------------------------------------|---------------------------------------|
B|-------------------------------------------------|---------------------------------------|
G|-7----%----7----%----7----7----7------7-----7----|------%---------%----------------------|
D|-7----%----7----%----7----7----7------7-----7----|-5----%----5----%----5----5----5-------|
A|-5---------5---------5----5----5------5-----5----|-5---------5---------5----5----5-------|
E|-------------------------------------------------|-3---------3---------3----3----3-------|

E|-------------------------------------------------------------------|-------------------------------------------------|
B|-------------------------------------------------------------------|-------------------------------------------------|
G|-------------------------------------------------------------------|----------------3---------------------3----------|
D|-2----2---2---2----5----2----2----2----2---2---2----5----2----2----|-2----2----2----3-----3----2-----2----3-----3----|
A|-2----2---2---2----5----2----2----2----2---2---2----5----2----2----|-2----2----2----1-----3----2-----2----1-----3----|
E|-0----0---0---0----3----0----0----0----0---0---0----3----0----0----|-0----0----0----------1----0-----0----------1----|

E|-------------------------------------------------|-------------------------------------------------|
B|-------------------------------------------------|-------------------------------------------------|
G|----------------3--------------------------------|----------------3---------------------3----------|
D|-2----2----2----3-----3----2-----3----5-----3----|-2----2----2----3-----3----2-----2----3-----3----|
A|-2----2----2----1-----3----2-----3----5-----3----|-2----2----2----1-----3----2-----2----1-----3----|
E|-0----0----0----------1----0-----1----3-----1----|-0----0----0----------1----0-----0----------1----|

E|-------------------------------------------------|------------------------------------------------|
B|-------------------------------------------------|------------------------------------------------|
G|----------------3--------------------------------|--------------------------3---------------------|
D|-2----2----2----3-----3----2-----3----5-----3----|-5----5---5---5----5------3-----5----5----3-----|
A|-2----2----2----1-----3----2-----3----5-----3----|-5----5---5---5----5------1-----5----5----3-----|
E|-0----0----0----------1----0-----1----3-----1----|-3----3---3---3----3------------3----3----1-----|

E|--------------|-------------------------------------------------|-------------------------------------------------|
B|--------------|-------------------------------------------------|-------------------------------------------------|
G|-%------%-----|----------------3---------------------3----------|----------------3--------------------------------|
D|-%------%-----|-2----2----2----3-----3----2-----2----3-----3----|-2----2----2----3-----3----2-----3----5-----3----|
A|--------------|-2----2----2----1-----3----2-----2----1-----3----|-2----2----2----1-----3----2-----3----5-----3----|
E|--------------|-0----0----0----------1----0-----0----------1----|-0----0----0----------1----0-----1----3-----1----|

E|-------------------------------------------------|-------------------------------------------------|
B|-------------------------------------------------|-------------------------------------------------|
G|----------------3---------------------3----------|----------------3--------------------------------|
D|-2----2----2----3-----3----2-----2----3-----3----|-2----2----2----3-----3----2-----3----5-----3----|
A|-2----2----2----1-----3----2-----2----1-----3----|-2----2----2----1-----3----2-----3----5-----3----|
E|-0----0----0----------1----0-----0----------1----|-0----0----0----------1----0-----1----3-----1----|

E|-------------------------------------------------|-------------------------------------------------|
B|-------------------------------------------------|-------------------------------------------------|
G|----------------3---------------------3----------|----------------3--------------------------------|
D|-2----2----2----3-----3----2-----2----3-----3----|-2----2----2----3-----3----2-----3----5-----3----|
A|-2----2----2----1-----3----2-----2----1-----3----|-2----2----2----1-----3----2-----3----5-----3----|
E|-0----0----0----------1----0-----0----------1----|-0----0----0----------1----0-----1----3-----1----|

E|-------------------------------------------------|-------------------------------------------------|
B|-------------------------------------------------|-------------------------------------------------|
G|----------------3---------------------3----------|----------------3--------------------------------|
D|-2----2----2----3-----3----2-----2----3-----3----|-2----2----2----3-----3----2-----3----5-----3----|
A|-2----2----2----1-----3----2-----2----1-----3----|-2----2----2----1-----3----2-----3----5-----3----|
E|-0----0----0----------1----0-----0----------1----|-0----0----0----------1----0-----1----3-----1----|

E|-----------------------------------------|-------------------------------|---------------------------|
B|-----------------------------------------|-------------------------------|---------------------------|
G|----------------------------------%------|-%-----------------------------|------------%------%-------|
D|-2----2----2----2------2-----2----%------|-%-------2----2----2----2------|-3-----3----%------%-------|
A|-2----2----2----2------2-----2-----------|---------2----2----2----2------|-3-----3-------------------|
E|-0----0----0----0------0-----0-----------|---------0----0----0----0------|-1-----1-------------------|

E|-----------------------------------------|-------------------------------------------------|
B|-----------------------------------------|-------------------------------------------------|
G|----------------------------------%------|-----------------------------3----4----5----4----|
D|-4----4----4----4------5-----5----%------|-6----6----6----6------7-----3----4----5----4----|
A|-4----4----4----4------5-----5-----------|-6----6----6----6------7-----1----2----3----2----|
E|-2----2----2----2------3-----3-----------|-4----4----4----4------5-------------------------|

E|-------------------------------------------------------------------|-------------------------------------------------------------------|
B|-------------------------------------------------------------------|-------------------------------------------------------------------|
G|-------------------------------------------------------------------|-------------------------------------------------------------------|
D|-2----2---2---2----5----2----2----2----2---2---2----5----2----2----|-2----2---2---2----5----2----2----2----2---2---2----5----2----2----|
A|-2----2---2---2----5----2----2----2----2---2---2----5----2----2----|-2----2---2---2----5----2----2----2----2---2---2----5----2----2----|
E|-0----0---0---0----3----0----0----0----0---0---0----3----0----0----|-0----0---0---0----3----0----0----0----0---0---0----3----0----0----|

E|----------------------------------------------------------------|-------------------------------------------------------------------|
B|----------------------------------------------------------------|-------------------------------------------------------------------|
G|----------------------------------3-----------------------------|-------------------------------------------------------------------|
D|-2----2---2---2----7----2----2----3----2----2----7----2----2----|-2----2---2---2----5----2----2----2----2---2---2----5----2----2----|
A|-2----2---2---2----7----2----2----1----2----2----7----2----2----|-2----2---2---2----5----2----2----2----2---2---2----5----2----2----|
E|-0----0---0---0----5----0----0---------0----0----5----0----0----|-0----0---0---0----3----0----0----0----0---0---0----3----0----0----|

E|----------------------------------------------------------------|-------------------------------------------------------------------|
B|----------------------------------------------------------------|-------------------------------------------------------------------|
G|----------------------------------3-----------------------------|-------------------------------------------------------------------|
D|-2----2---2---2----7----2----2----3----2----7----2----5----2----|-2----2---2---2----5----2----2----2----2---2---2----5----2----2----|
A|-2----2---2---2----7----2----2----1----2----7----2----5----2----|-2----2---2---2----5----2----2----2----2---2---2----5----2----2----|
E|-0----0---0---0----5----0----0---------0----5----0----3----0----|-0----0---0---0----3----0----0----0----0---0---0----3----0----0----|

E|-----------------------------------------------------|------------------------------------------------|
B|-----------------------------------------------------|------------------------------------------------|
G|-----------------------------------------------------|------------------------------------------------|
D|-2-----2----2----2----2----2-----2----2----2----2----|-2-----2----2----2----2----2-----4---5---7------|
A|-2-----2----2----2----2----2-----2----2----2----2----|-2-----2----2----2----2----2-----4---5---7------|
E|-0-----0----0----0----0----0-----0----0----0----0----|-0-----0----0----0----0----0-----2---3---5------|

E|-------------------------------------------------|---------------------------------------------|
B|-------------------------------------------------|---------------------------------------------|
G|-7----%----7----%----7----7----7------7-----7----|------%---------%----------------------3-----|
D|-7----%----7----%----7----7----7------7-----7----|-5----%----5----%------6-----7----7----3-----|
A|-5---------5---------5----5----5------5-----5----|-5---------5-----------6-----7----7----1-----|
E|-------------------------------------------------|-3---------3-----------4-----5----5----------|

E|-----------------------------------------|-----------------------------------------|
B|-----------------------------------------|-----------------------------------------|
G|----------------------------------%------|----------------------------------%------|
D|-2----2----2----2------2-----2----%------|-2----2----2----2------3-----3----%------|
A|-2----2----2----2------2-----2-----------|-2----2----2----2------3-----3-----------|
E|-0----0----0----0------0-----0-----------|-0----0----0----0------1-----1-----------|

E|-----------------------------------------|-------------------------------------------------|
B|-----------------------------------------|-------------------------------------------------|
G|----------------------------------%------|-----------------------------3----4----7----4----|
D|-4----4----4----4------5-----5----%------|-6----6----6----6------7-----3----4----7----4----|
A|-4----4----4----4------5-----5-----------|-6----6----6----6------7-----1----2----5----2----|
E|-2----2----2----2------3-----3-----------|-4----4----4----4------5-------------------------|

E|-----------------------------------------------------|------------------------------------------------|
B|-----------------------------------------------------|------------------------------------------------|
G|-----------------------------------------------------|------------------------------------------------|
D|-2-----2----2----2----2----2-----2----2----2----2----|-2-----2----2----2----2----2-----4---5---7------|
A|-2-----2----2----2----2----2-----2----2----2----2----|-2-----2----2----2----2----2-----4---5---7------|
E|-0-----0----0----0----0----0-----0----0----0----0----|-0-----0----0----0----0----0-----2---3---5------|

E|-------------------------------------------------|---------------------------------------------|
B|-------------------------------------------------|---------------------------------------------|
G|-7----%----7----%----7----7----7------7-----7----|------%---------%----------------------3-----|
D|-7----%----7----%----7----7----7------7-----7----|-5----%----5----%------6-----7----7----3-----|
A|-5---------5---------5----5----5------5-----5----|-5---------5-----------6-----7----7----1-----|
E|-------------------------------------------------|-3---------3-----------4-----5----5----------|

E|-----------------------------------------------------|------------------------------------------------|
B|-----------------------------------------------------|------------------------------------------------|
G|-----------------------------------------------------|------------------------------------------------|
D|-2-----2----2----2----2----2-----2----2----2----2----|-2-----2----2----2----2----2-----4---5---7------|
A|-2-----2----2----2----2----2-----2----2----2----2----|-2-----2----2----2----2----2-----4---5---7------|
E|-0-----0----0----0----0----0-----0----0----0----0----|-0-----0----0----0----0----0-----2---3---5------|

E|-------------------------------------------------|---------------------------------------|
B|-------------------------------------------------|---------------------------------------|
G|-7----%----7----%----7----7----7------7-----7----|------%---------%----------------------|
D|-7----%----7----%----7----7----7------7-----7----|-5----%----5----%----5----5----5-------|
A|-5---------5---------5----5----5------5-----5----|-5---------5---------5----5----5-------|
E|-------------------------------------------------|-3---------3---------3----3----3-------|

E|-------------------------------------------------------------------|------------------------------------------------|
B|-------------------------------------------------------------------|------------------------------------------------|
G|-------------------------------------------------------------------|--------------------------3---------------------|
D|-2----2---2---2----5----2----2----2----2---2---2----5----2----2----|-5----5---5---5----5------3-----5----5----3-----|
A|-2----2---2---2----5----2----2----2----2---2---2----5----2----2----|-5----5---5---5----5------1-----5----5----3-----|
E|-0----0---0---0----3----0----0----0----0---0---0----3----0----0----|-3----3---3---3----3------------3----3----1-----|

E|--------------|
B|--------------|
G|-%------%-----|
D|-%------%-----|
A|--------------|
E|--------------|
Metallica - Don_'t Tread On Me (2)
Metallica - Don_'t Tread On Me (2).gp3