Metallica - Doodle

Metallica



Title: doodle
Album: 
Artist: metallica
Author: 

Track 1: Bass
G|-------14---16---14---13-----|-14---16---14---13----13--14--13--------|---------------------------------|
D|-----------------------------|-----------------------------------16---|-14-------------19---------------|
A|-----------------------------|----------------------------------------|------16--------------16---------|
E|-0---------------------------|----------------------------------------|-----------17---------------17---|

G|-----------------------------|----------------11--------------11---|-----------11-------------11-------------|
D|------------19---------------|------12--------------12-------------|-12-------------12-------------12--------|
A|------16----------16---------|-0---------0---------------0---------|------0--------------0--------------0----|
E|-17---------------------0----|-------------------------------------|-----------------------------------------|

G|-------------12----------|-------------12-----|-------------11-------------11---|
D|-------9-----------9-----|-------9------------|------------------12-------------|
A|-10----------------------|-10-----------------|-0----0----------------0---------|
E|-------------------------|--------------------|---------------------------------|

G|-----------11-------------11-------------|-------------12----------|-------------12----------|
D|-12-------------12-------------12--------|-------9-----------9-----|-------9-----------9-----|
A|------0--------------0--------------0----|-10----------------------|-10----------------------|
E|-----------------------------------------|-------------------------|-------------------------|

G|-----------14---16---14---13-----|-14---16---14---13----13--14--13--------|---------------------------------|
D|---------------------------------|-----------------------------------16---|-14-------------19---------------|
A|---------------------------------|----------------------------------------|------16--------------16---------|
E|-0----0--------------------------|----------------------------------------|-----------17---------------17---|

G|-----------------------------|----------------11--------------11---|-----------11-------------11-------------|
D|------------19---------------|------12--------------12-------------|-12-------------12-------------12--------|
A|------16----------16---------|-0---------0---------------0---------|------0--------------0--------------0----|
E|-17---------------------0----|-------------------------------------|-----------------------------------------|

G|-------------12----------|-------------12-----|-------------11-------------11---|
D|-------9-----------9-----|-------9------------|------------------12-------------|
A|-10----------------------|-10-----------------|-0----0----------------0---------|
E|-------------------------|--------------------|---------------------------------|

G|-----------11-------------11-------------|-------------12----------|-12------|------10-------------10-------------10---|
D|-12-------------12-------------12--------|-------9-----------9-----|-9-------|-----------12-------------12-------------|
A|------0--------------0--------------0----|-10----------------------|-10------|-0--------------0--------------0---------|
E|-----------------------------------------|-------------------------|---------|-----------------------------------------|

G|-14-------------12-------------10--------|------9--------------9--------------9----|
D|------12-------------12------------------|-----------10-------------10-------------|
A|-----------0--------------0---------0----|-0--------------0--------------0---------|
E|-----------------------------------------|-----------------------------------------|

G|-12-------------10-------------9---------|------10-------------10-------------10---|
D|------10-------------10------------------|-----------12-------------12-------------|
A|-----------0--------------0---------0----|-0--------------0--------------0---------|
E|-----------------------------------------|-----------------------------------------|

G|-14-------------12-------------10--------|------9--------------9--------------9----|
D|------12-------------12------------------|-----------10-------------10-------------|
A|-----------0--------------0---------0----|-0--------------0--------------0---------|
E|-----------------------------------------|-----------------------------------------|

G|-12-------------10-------------9---------|------10-------------10-------------10---|
D|------10-------------10------------------|-----------12-------------12-------------|
A|-----------0--------------0---------0----|-0--------------0--------------0---------|
E|-----------------------------------------|-----------------------------------------|

G|-14-------------12-------------10--------|------9--------------9--------------9----|
D|------12-------------12------------------|-----------10-------------10-------------|
A|-----------0--------------0---------0----|-0--------------0--------------0---------|
E|-----------------------------------------|-----------------------------------------|

G|-12-------------10-------------9---------|------10-------------10-------------10---|
D|------10-------------10------------------|-----------12-------------12-------------|
A|-----------0--------------0---------0----|-0--------------0--------------0---------|
E|-----------------------------------------|-----------------------------------------|

G|-14-------------12-------------10--------|------9--------------9--------------9----|
D|------12-------------12------------------|-----------10-------------10-------------|
A|-----------0--------------0---------0----|-0--------------0--------------0---------|
E|-----------------------------------------|-----------------------------------------|

G|-12-------------10-------------9---------|-----------7---------4--------------5----|
D|------10-------------10------------------|------5---------5---------5--------------|
A|-----------0--------------0---------0----|-0-----------------------------0---------|
E|-----------------------------------------|-----------------------------------------|

G|-5--------------5--------------5---------|-----------7---------4--------------5----|
D|------7--------------7--------------7----|------5---------5---------5--------------|
A|-----------0--------------0--------------|-0-----------------------------0---------|
E|-----------------------------------------|-----------------------------------------|

G|-5--------------5--------------5---------|-----------7---------4--------------5----|
D|------7--------------7--------------7----|------5---------5---------5--------------|
A|-----------0--------------0--------------|-0-----------------------------0---------|
E|-----------------------------------------|-----------------------------------------|

G|-5--------------5--------------5---------|-----------7---------4--------------5----|
D|------7--------------7--------------7----|------5---------5---------5--------------|
A|-----------0--------------0--------------|-0-----------------------------0---------|
E|-----------------------------------------|-----------------------------------------|

G|-5--------------7--------------9---------|
D|------7--------------9--------------10---|
A|-----------0--------------0--------------|
E|-----------------------------------------|
Metallica - Doodle
Metallica - Doodle.gp3