Metallica - Enter sandman (2)

Metallica - Enter sandman (2)

Metallica



Title: Enter Sandman
Album: 
Artist: 
Author: Metallica

Track 1: Bass
G|------|---------|---------|---------|---------|---------|---------|---------|---------|
D|-%----|-%-------|-%-------|-%-------|-%-------|-%-------|-%-------|-%-------|-%-------|
A|-%----|-%-------|-%-------|-%-------|-%-------|-%-------|-%-------|-%-------|-%-------|
E|------|---------|---------|---------|---------|---------|---------|---------|---------|

G|-----------------------------------------|-----------------------------------------|
D|-----------------------------------------|-----------------------------------------|
A|-----------------------------------------|-----------------------------------------|
E|-0----0----0----0----0----0----0----0----|-0----0----0----0----0----0----0----0----|

G|-----------------------------------------|-----------------------------------------|
D|-----------------------------------------|-----------------------------------------|
A|-----------------------------------------|-----------------------------------------|
E|-0----0----0----0----0----0----0----0----|-0----0----0----0----0----0----0----0----|

G|-----------------------------------------|-----------------------------------------|
D|-----------------------------------------|-----------------------------------------|
A|-----------------------------------------|-----------------------------------------|
E|-0----0----0----0----0----0----0----1----|-0----0----0----0----0----0----0----1----|

G|-----------------------------------------|-----------------------------------------|
D|-----------------------------------------|-----------------------------------------|
A|-----------------------------------------|-----------------------------------------|
E|-0----0----0----1----0----0----0----1----|-0----0----0----0----0----0----0----1----|

G|-----------------------------------------|-----------------------------------------|
D|-----------------------------------------|-----------------------------------------|
A|-----------------------------------------|-----------------------------------------|
E|-0----0----0----0----0----0----0----1----|-0----0----0----0----0----0----0----1----|

G|-----------------------------------------|---------------------------------|-----------------------------------------|
D|-----------------------------------------|---------------------------------|-----------------------------------------|
A|-----------------------------------------|---------------------------------|-----------------------------------------|
E|-0----0----0----0----0----0----0----1----|-0----0----0----5-----5-----1----|-0----0----0----0----0----0----0----1----|

G|-----------------------------------------|-----------------------------------------|
D|-----------------------------------------|-----------------------------------------|
A|-----------------------------------------|-----------------------------------------|
E|-0----0----0----0----0----0----0----1----|-0----0----0----0----0----0----0----1----|

G|-----------------------------------------|-----------------------------------------|
D|-----------------------------------------|-----------------------------------------|
A|-----------------------------------------|-----------------------------------------|
E|-0----0----0----0----0----0----0----2----|-0----0----0----0----0----0----0----1----|

G|-----------------------------------------|-----------------------------------------|
D|-----------------------------------------|-----------------------------------------|
A|-----------------------------------------|-----------------------------------------|
E|-0----0----0----0----0----0----0----1----|-0----0----0----0----0----0----0----1----|

G|-----------------------------------------|-----------------------------------------|
D|-----------------------------------------|-----------------------------------------|
A|-----------------------------------------|-----------------------------------------|
E|-0----0----0----0----0----0----0----0----|-0----0----0----6----5----5----0----0----|

G|-----------------------------------------|-------------------------------------|-----------------------------------------|
D|-----------------------------------------|-------------------------------------|-----------------------------------------|
A|-----------------------------------------|-------------------------------------|-----------------------------------------|
E|-0----0----0----6----5----5----0----0----|-0----0----0----6----5-----0----3----|-3----0----2----0----2----3----2----0----|

G|-----------------------------------------|-----------------------------------------|
D|-----------------------------------------|-----------------------------------------|
A|-----------------------------------------|-----------------------------------------|
E|-0----0----0----6----5----5----0----0----|-0----0----0----6----5----5----0----0----|

G|-----------------------------------------|-----------------------------------------|
D|-----------------------------------------|-----------------------------------------|
A|-----------------------------------------|-----------------------------------------|
E|-0----0----0----6----5----5----0----3----|-3----0----0----6----5----5----0----3----|

G|-----------------------------------------|-----------------------------------------|
D|-----------------------------------------|-----------------------------------------|
A|-----------------------------------------|-----------------------------------------|
E|-3----0----2----0----2----3----2----0----|-0----0----0----0----0----0----0----1----|

G|-----------------------------------------|-----------------------------------------|
D|-----------------------------------------|-----------------------------------------|
A|-----------------------------------------|-----------------------------------------|
E|-0----0----0----0----0----0----0----3----|-3----0----2----0----2----3----2----0----|

G|-----------------------------------------|-----------------------------------------|
D|-----------------------------------------|-----------------------------------------|
A|-----------------------------------------|-----------------------------------------|
E|-0----0----0----0----0----0----0----1----|-1----0----0----0----0----0----0----1----|

G|-----------------------------------------|-----------------------------------------|
D|-----------------------------------------|-----------------------------------------|
A|-----------------------------------------|-----------------------------------------|
E|-0----0----0----0----0----0----0----3----|-3----0----2----0----2----3----2----0----|

G|--------------------|--------------------|--------------------|-----------------------------------------|
D|--------------------|--------------------|--------------------|-----------------------------------------|
A|--------2-----------|--------2-----------|--------2-----------|-----------------------------------------|
E|-0-------------2----|-2-------------2----|-2-------------2----|-2----2----2----2----2----2----0----1----|

G|-----------------------------------------|-----------------------------------------|
D|-----------------------------------------|-----------------------------------------|
A|----------------3----2----2----2---------|----------------3----2----2----2---------|
E|-2----2----2------------------------2----|-2----2----2------------------------2----|

G|-----------------------------------------|--------------------------------------------|
D|-----------------------------------------|--------------------------------------------|
A|----------------3----2----2----2---------|--------------5----7----7----5--------------|
E|-2----2----2------------------------0----|-0----5---7-----------------------7----5----|

G|-------------------------------------|-----------------------------------------|------------------------|
D|-------------------------------------|-----------------------------------------|------%------%----------|
A|------------3----2----2----2---------|-----------------------------------------|------%------%----------|
E|-2-----2------------------------0----|-0----0----2----0----4----0----5----0----|-3-----------------0----|

G|-----------------------------------------|-----------------------------------------|
D|-----------------------------------------|-----------------------------------------|
A|-----------------------------------------|-----------------------------------------|
E|-0----0----0----6----5----5----0----0----|-0----0----0----6----5----5----0----0----|

G|-------------------------------------|-----------------------------------------|-----------------------------------------|
D|-------------------------------------|-----------------------------------------|-----------------------------------------|
A|-------------------------------------|-----------------------------------------|-----------------------------------------|
E|-0----0----0----6----5-----0----3----|-3----0----2----0----2----3----2----0----|-0----0----0----6----5----5----0----0----|

G|-----------------------------------------|-----------------------------------------|
D|-----------------------------------------|-----------------------------------------|
A|-----------------------------------------|-----------------------------------------|
E|-0----0----0----6----5----5----0----0----|-0----0----0----6----5----5----0----3----|

G|-----------------------------------------|-----------------------------------------|
D|-----------------------------------------|-----------------------------------------|
A|-----------------------------------------|-----------------------------------------|
E|-3----0----2----0----2----3----2----0----|-0----0----0----0----0----0----0----1----|

G|-----------------------------------------|-----------------------------------------|
D|-----------------------------------------|-----------------------------------------|
A|-----------------------------------------|-----------------------------------------|
E|-1----0----0----0----0----0----0----1----|-0----0----0----0----0----0----0----3----|

G|-----------------------------------------|-----------------------------------------|
D|-----------------------------------------|-----------------------------------------|
A|-----------------------------------------|-----------------------------------------|
E|-3----0----2----0----2----3----2----0----|-0----0----0----0----0----0----0----1----|

G|-----------------------------------------|-----------------------------------------|
D|-----------------------------------------|-----------------------------------------|
A|-----------------------------------------|-----------------------------------------|
E|-1----0----0----0----0----0----0----1----|-0----0----0----0----0----0----0----3----|

G|-----------------------------------------|--------------------|--------------------|
D|-----------------------------------------|--------------------|--------------------|
A|-----------------------------------------|--------2-----------|--------2-----------|
E|-3----0----2----0----2----3----2----0----|-0-------------2----|-2-------------2----|

G|--------------------|-----------------------------------------|-----------------------------------------|
D|--------------------|-----------------------------------------|-----------------------------------------|
A|--------2-----------|-----------------------------------------|----------------3----2----2----2---------|
E|-2-------------2----|-2----2----2----2----2----2----0----1----|-2----2----2------------------------2----|

G|-----------------------------------------|-----------------------------------------|
D|-----------------------------------------|-----------------------------------------|
A|----------------3----2----2----2---------|----------------3----2----2----2---------|
E|-2----2----2------------------------2----|-2----2----2------------------------0----|

G|--------------------------------------------|-------------------------------------|
D|--------------------------------------------|-------------------------------------|
A|--------------5----7----7----5--------------|------------3----2----2----2---------|
E|-0----5---7-----------------------7----5----|-2-----2------------------------0----|

G|-----------------------------------------|------------------------|-----------------------------------------|
D|-----------------------------------------|------%------%----------|-----------------------------------------|
A|-----------------------------------------|------%------%----------|---------------------7----7----7---------|
E|-0----0----2----0----4----0----5----0----|-3-----------------0----|-0----0----0----0-------------------0----|

G|-----------------------------------------|-----------------------------------------|
D|-----------------------------------------|-----------------------------------------|
A|-----------------------------------------|-----------------------------------------|
E|-0----0----0----6----5----5----0----0----|-0----0----0----6----5----5----0----0----|

G|-----------------------------------------|-----------------------------------------|
D|-----------------------------------------|-----------------------------------------|
A|-----------------------------------------|-----------------------------------------|
E|-0----0----0----6----5----5----0----3----|-3----0----2----0----2----3----2----0----|

G|-----------------------------------------|-----------------------------------------|
D|-----------------------------------------|-----------------------------------------|
A|-----------------------------------------|-----------------------------------------|
E|-0----0----0----6----5----5----0----0----|-0----0----0----6----5----5----0----0----|

G|-----------------------------------------|-----------------------------------------|
D|-----------------------------------------|-----------------------------------------|
A|-----------------------------------------|-----------------------------------------|
E|-0----0----0----6----5----5----0----3----|-3----0----2----0----2----3----2----2----|

G|--------------------|--------------------|--------------------|----------------------------|
D|--------------------|--------------------|--------------------|----------------------------|
A|--------2-----------|--------2-----------|--------2-----------|----------------------------|
E|-2-------------2----|-2-------------2----|-2-------------2----|-2------0----0----0----1----|

G|-----------------------------------------|-----------------------------------------|
D|-----------------------------------------|-----------------------------------------|
A|----------------3----2----2----2---------|----------------3----2----2----2---------|
E|-2----2----2------------------------2----|-2----2----2------------------------2----|

G|-------------------------------------|-------------------------------------|-----------------------------------------|
D|-------------------------------------|-------------------------------------|-----------------------------------------|
A|----------------3----2-----2---------|-------5----5------------------------|----------------3----2----2----2---------|
E|-2----2----2--------------------0----|-0---------------7----6----5----3----|-2----2----2------------------------0----|

G|-------------------------------------|------------------------|-----------------------------------------|
D|-------------------------------------|------%------%-----%----|-----------------------------------------|
A|---------------------------0---------|------%------%-----%----|-----------------------------------------|
E|-0-----2----0----3----0---------0----|-0----------------------|-0----0----0----0----0----0----0----1----|

G|-----------------------------------------|-----------------------------------------|
D|-----------------------------------------|-----------------------------------------|
A|-----------------------------------------|-----------------------------------------|
E|-0----0----0----0----0----0----0----1----|-0----0----0----0----0----0----0----1----|

G|-----------------------------------------|-----------------------------------------|
D|-----------------------------------------|-----------------------------------------|
A|-----------------------------------------|-----------------------------------------|
E|-0----0----0----0----0----0----0----1----|-0----0----0----0----0----0----0----1----|

G|-----------------------------------------|-----------------------------------------|
D|-----------------------------------------|-----------------------------------------|
A|-----------------------------------------|-----------------------------------------|
E|-0----0----0----0----0----0----0----1----|-0----0----0----0----0----0----0----1----|

G|-----------------------------------------|-----------------------------------------|
D|-----------------------------------------|-----------------------------------------|
A|-----------------------------------------|-----------------------------------------|
E|-0----0----0----0----0----0----0----1----|-0----0----0----0----0----0----0----1----|

G|-----------------------------------------|-----------------------------------------|
D|-----------------------------------------|-----------------------------------------|
A|-----------------------------------------|-----------------------------------------|
E|-0----0----0----0----0----0----0----1----|-0----0----0----0----0----0----0----1----|

G|-----------------------------------------|-----------------------------------------|
D|-----------------------------------------|-----------------------------------------|
A|-----------------------------------------|-----------------------------------------|
E|-0----0----0----0----0----0----0----2----|-2----2----2----2----2----2----2----3----|

G|-----------------------------------------|-----------------------------------------|
D|-----------------------------------------|-----------------------------------------|
A|-----------------------------------------|-----------------------------------------|
E|-2----2----2----2----2----2----2----3----|-2----2----2----2----2----2----2----3----|

G|-----------------------------------------|-----------------------------------------|
D|-----------------------------------------|-----------------------------------------|
A|-----------------------------------------|-----------------------------------------|
E|-2----2----2----2----2----2----2----3----|-2----2----2----2----2----2----2----3----|

G|-----------------------------------------|-----------------------------------------|
D|-----------------------------------------|-----------------------------------------|
A|-----------------------------------------|-----------------------------------------|
E|-2----2----2----2----2----2----2----2----|-2----2----2----2----2----2----2----2----|

G|-----------------------------------------|-----------------------------------------|
D|-----------------------------------------|-----------------------------------------|
A|-----------------------------------------|----------------3----2----2----2---------|
E|-2----2----2----2----2----0----0----1----|-2----2----2------------------------2----|

G|-----------------------------------------|-----------------------------------------|
D|-----------------------------------------|-----------------------------------------|
A|----------------3----2----2----2---------|----------------3----2----2----2---------|
E|-2----2----2------------------------2----|-2----2----2------------------------0----|

G|-----------------------------------------|-------------------------------------|-----------------------------------------|
D|-----------------------------------------|-------------------------------------|-----------------------------------------|
A|-----------7----5--------------7---------|----------------3----2-----2---------|-----------------------------------------|
E|-0----0--------------7----7---------5----|-2----2----2--------------------0----|-0----0----0----0----0----0----0----1----|

G|-------------------------------------|-----------------------------------------|---------------------------------|
D|-------------------------------------|-----------------------------------------|---------------------------------|
A|------------3----2----2----2---------|----------------3----2----2----2---------|----------------3----2-----------|
E|-2-----2------------------------2----|-2----2----2------------------------2----|-2----2----2----------------0----|

G|----------------------------------------|-------------------------------------|-----------------------------------------|
D|----------------------------------------|-------------------------------------|-----------------------------------------|
A|--------------5-----7----5--------------|----------------3----2-----2---------|-----------------------------------------|
E|-0----5---7-------------------7----5----|-2----2----2--------------------0----|-0----0----2----0----3----0----5----0----|

G|------------------------|---------|---------|-------------------|-----------------------------------------|
D|------%------%----------|---------|---------|-------------------|-----------------------------------------|
A|------%------%----------|---------|---------|-------------------|-----------------------------------------|
E|-0-----------------0----|-0-------|-0-------|-0-------0----0----|-0----0----0----6----5----5----0----0----|

G|-----------------------------------------|-----------------------------------------|
D|-----------------------------------------|-----------------------------------------|
A|-----------------------------------------|-----------------------------------------|
E|-0----0----0----6----5----5----0----0----|-0----0----0----6----5----5----0----0----|

G|-----------------------------------------|-----------------------------------------|
D|-----------------------------------------|-----------------------------------------|
A|-----------------------------------------|-----------------------------------------|
E|-0----0----0----6----5----5----0----0----|-0----0----0----6----5----5----0----3----|

G|-----------------------------------------|-----------------------------------------|
D|-----------------------------------------|-----------------------------------------|
A|-----------------------------------------|-----------------------------------------|
E|-3----0----2----0----2----3----2----0----|-0----0----0----0----0----0----0----1----|

G|-----------------------------------------|-----------------------------------------|
D|-----------------------------------------|-----------------------------------------|
A|-----------------------------------------|-----------------------------------------|
E|-0----0----0----0----0----0----0----1----|-0----0----0----0----0----0----0----1----|

G|-----------------------------------------|-----------------------------------------|
D|-----------------------------------------|-----------------------------------------|
A|-----------------------------------------|-----------------------------------------|
E|-0----0----0----0----0----0----0----1----|-0----0----0----0----0----0----0----0----|

G|-----------------------------------------|-----------------------------------------|
D|-----------------------------------------|-----------------------------------------|
A|-----------------------------------------|-----------------------------------------|
E|-0----0----0----0----0----0----0----0----|-0----0----0----0----0----0----0----0----|

G|-----------------------------------------|-----------------------------------------|
D|-----------------------------------------|-----------------------------------------|
A|-----------------------------------------|-----------------------------------------|
E|-0----0----0----0----0----0----0----0----|-0----0----0----0----0----0----0----0----|

G|-----------------------------------------|-----------------------------------------|
D|-----------------------------------------|-----------------------------------------|
A|-----------------------------------------|-----------------------------------------|
E|-0----0----0----0----0----0----0----0----|-0----0----0----0----0----0----0----0----|

G|-----------------------------------------|-----------------------------------------|
D|-----------------------------------------|-----------------------------------------|
A|-----------------------------------------|-----------------------------------------|
E|-0----0----0----0----0----0----0----0----|-0----0----0----0----0----0----0----0----|

G|-----------------------------------------|-----------------------------------------|
D|-----------------------------------------|-----------------------------------------|
A|-----------------------------------------|-----------------------------------------|
E|-0----0----0----0----0----0----0----0----|-0----0----0----0----0----0----0----0----|

G|-----------------------------------------|-----------------------------------------|
D|-----------------------------------------|-----------------------------------------|
A|-----------------------------------------|-----------------------------------------|
E|-0----0----0----0----0----0----0----0----|-0----0----0----0----0----0----0----0----|

G|-----------------------------------------|-----------------------------------------|
D|-----------------------------------------|-----------------------------------------|
A|-----------------------------------------|-----------------------------------------|
E|-0----0----0----0----0----0----0----0----|-0----0----0----0----0----0----0----0----|

G|-----------------------------------------|-----------------------------------------|
D|-----------------------------------------|-----------------------------------------|
A|-----------------------------------------|-----------------------------------------|
E|-0----0----0----0----0----0----0----0----|-0----0----0----0----0----0----0----0----|

G|-----------------------------------------|---------|
D|-----------------------------------------|-%-------|
A|-----------------------------------------|-%-------|
E|-0----0----0----0----0----0----0----0----|---------|
Metallica - Enter sandman (2)
Metallica - Enter sandman (2).gp3