Metallica - Enter Sandman (3)

Metallica - Enter Sandman (3)

Metallica



Title: Enter Sandman
Album: Black Album
Artist: 
Author: Metallica

Track 1: Ac. Guitar
E|------|-------------------------------------|-------------------------------------|
B|------|-------------------------------------|-------------------------------------|
G|------|-------------------------------------|-------------------------------------|
D|------|-----------5-------------------------|-----------5-------------------------|
A|------|------7--------------------7---------|------7--------------------7---------|
E|-0----|-0--------------6----5----------0----|-0--------------6----5----------0----|

E|-------------------------------------|-------------------------------------|-------------------------------------|
B|-------------------------------------|-------------------------------------|-------------------------------------|
G|-------------------------------------|-------------------------------------|-------------------------------------|
D|-----------5-------------------------|-----------5-------------------------|-----------5-------------------------|
A|------7--------------------7---------|------7--------------------7---------|------7--------------------7---------|
E|-0--------------6----5----------0----|-0--------------6----5----------0----|-0--------------6----5----------0----|

E|-------------------------------------------|-------------------------------------------|
B|-------------------------------------------|-------------------------------------------|
G|-------------------------------------------|-------------------------------------------|
D|--------------5----------------------------|--------------5----------------------------|
A|---------7--------------------7------------|---------7--------------------7------------|
E|-0----0------------6----5----------0----0--|-0----0------------6----5----------0----0--|

E|-------------------------------------------|-------------------------------------------|
B|-------------------------------------------|-------------------------------------------|
G|-------------------------------------------|-------------------------------------------|
D|--------------5----------------------------|--------------5----------------------------|
A|---------7--------------------7------------|---------7--------------------7------------|
E|-0----0------------6----5----------0----0--|-0----0------------6----5----------0----0--|

E|-------------------------------------|-------------------------------------|-------------------------------------|
B|-------------------------------------|-------------------------------------|-------------------------------------|
G|-------------------------------------|-------------------------------------|-------------------------------------|
D|-----------5-------------------------|-----------5-------------------------|-----------5-------------------------|
A|------7--------------------7---------|------7--------------------7---------|------7--------------------7----2----|
E|-0--------------6----5----------0----|-0--------------6----5----------0----|-0--------------6----5----------0----|

E|-----------------------------------------|-----------------------------------------|
B|-----------------------------------------|-----------------------------------------|
G|-----------------------------------------|-----------------------------------------|
D|-----------------------------------------|-----------------------------------------|
A|-2----------------------------------7----|------------------------------------7----|
E|-0----0----0----0----0----0----0---------|-0----0----0----0----0----0----0---------|

E|-----------------------------------------|-----------------------------------------|
B|-----------------------------------------|-----------------------------------------|
G|-----------------------------------------|-----------------------------------------|
D|-----------------------------------------|-----------------------------------------|
A|------------------------------------7----|------------------------------------7----|
E|-0----0----0----0----0----0----0---------|-0----0----0----0----0----0----0---------|

E|--------------------------------------------|--------------------------------------------|
B|--------------------------------------------|--------------------------------------------|
G|--------------------------------------------|--------------------------------------------|
D|--------------------------------------------|--------------------------------------------|
A|-----------7------------------------3---2---|-----------7------------------------3---2---|
E|-0----0---------6----0----0----0----1---0---|-0----0---------6----0----0----0----1---0---|

E|--------------------------------------------|--------------------------------------------|
B|--------------------------------------------|--------------------------------------------|
G|--------------------------------------------|--------------------------------------------|
D|--------------------------------------------|--------------------------------------------|
A|-----------7------------------------3---2---|-----------7------------------------3---2---|
E|-0----0---------6----0----0----0----1---0---|-0----0---------6----0----0----0----1---0---|

E|--------------------------------------------|--------------------------------------------|
B|--------------------------------------------|--------------------------------------------|
G|--------------------------------------------|--------------------------------------------|
D|--------------------------------------------|--------------------------------------------|
A|-----------7------------------------3---2---|-----------7------------------------3---2---|
E|-0----0---------6----5----0----0----1---0---|-0----0---------6----5----0----0----1---0---|

E|--------------------------------------------|--------------------------------------------|
B|--------------------------------------------|--------------------------------------------|
G|--------------------------------------------|--------------------------------------------|
D|--------------------------------------------|--------------------------------------------|
A|-----------7------------------------3---2---|-----------7------------------------3---2---|
E|-0----0---------6----5----0----0----1---0---|-0----0---------6----5----0----0----1---0---|

E|--------------------------------------------|--------------------------------------------|
B|--------------------------------------------|--------------------------------------------|
G|--------------------------------------------|--------------------------------------------|
D|--------------------------------------------|--------------------------------------------|
A|-----------7------------------------3---2---|-----------7------------------------3---2---|
E|-0----0---------6----5----0----0----1---0---|-0----0---------6----5----0----0----1---0---|

E|--------------------------------------------|-----------------------------------------|
B|--------------------------------------------|-----------------------------------------|
G|--------------------------------------------|-----------------------------------------|
D|--------------------------------------------|-----------------------------------------|
A|-----------7------------------------3---2---|-----------7---------0--------------2----|
E|-0----0---------6----5----0----0----1---0---|-0----0---------6---------0----0----0----|

E|---------|---------|---------|---------|---------|---------|---------|---------|---------|
B|---------|---------|---------|---------|---------|---------|---------|---------|---------|
G|-%-------|-%-------|-%-------|-%-------|-%-------|-%-------|-%-------|-%-------|-%-------|
D|-%-------|-%-------|-%-------|-%-------|-%-------|-%-------|-%-------|-%-------|-%-------|
A|---------|---------|---------|---------|---------|---------|---------|---------|---------|
E|---------|---------|---------|---------|---------|---------|---------|---------|---------|

E|---------|---------|---------|---------|---------|---------|---------|---------|---------|
B|---------|---------|---------|---------|---------|---------|---------|---------|---------|
G|-%-------|-%-------|-%-------|-%-------|-%-------|-%-------|-%-------|-%-------|-%-------|
D|-%-------|-%-------|-%-------|-%-------|-%-------|-%-------|-%-------|-%-------|-%-------|
A|---------|---------|---------|---------|---------|---------|---------|---------|---------|
E|---------|---------|---------|---------|---------|---------|---------|---------|---------|

E|---------|---------|---------|---------|---------|---------|---------|---------|---------|
B|---------|---------|---------|---------|---------|---------|---------|---------|---------|
G|-%-------|-%-------|-%-------|-%-------|-%-------|-%-------|-%-------|-%-------|-%-------|
D|-%-------|-%-------|-%-------|-%-------|-%-------|-%-------|-%-------|-%-------|-%-------|
A|---------|---------|---------|---------|---------|---------|---------|---------|---------|
E|---------|---------|---------|---------|---------|---------|---------|---------|---------|

E|---------|---------|---------|---------|---------|---------|---------|---------|---------|
B|---------|---------|---------|---------|---------|---------|---------|---------|---------|
G|-%-------|-%-------|-%-------|-%-------|-%-------|-%-------|-%-------|-%-------|-%-------|
D|-%-------|-%-------|-%-------|-%-------|-%-------|-%-------|-%-------|-%-------|-%-------|
A|---------|---------|---------|---------|---------|---------|---------|---------|---------|
E|---------|---------|---------|---------|---------|---------|---------|---------|---------|

E|---------|---------|---------|---------|---------|---------|---------|---------|---------|
B|---------|---------|---------|---------|---------|---------|---------|---------|---------|
G|-%-------|-%-------|-%-------|-%-------|-%-------|-%-------|-%-------|-%-------|-%-------|
D|-%-------|-%-------|-%-------|-%-------|-%-------|-%-------|-%-------|-%-------|-%-------|
A|---------|---------|---------|---------|---------|---------|---------|---------|---------|
E|---------|---------|---------|---------|---------|---------|---------|---------|---------|

E|---------|---------|---------|---------|---------|---------|---------|---------|---------|
B|---------|---------|---------|---------|---------|---------|---------|---------|---------|
G|-%-------|-%-------|-%-------|-%-------|-%-------|-%-------|-%-------|-%-------|-%-------|
D|-%-------|-%-------|-%-------|-%-------|-%-------|-%-------|-%-------|-%-------|-%-------|
A|---------|---------|---------|---------|---------|---------|---------|---------|---------|
E|---------|---------|---------|---------|---------|---------|---------|---------|---------|

E|---------|---------|---------|---------|---------|---------|---------|---------|---------|
B|---------|---------|---------|---------|---------|---------|---------|---------|---------|
G|-%-------|-%-------|-%-------|-%-------|-%-------|-%-------|-%-------|-%-------|-%-------|
D|-%-------|-%-------|-%-------|-%-------|-%-------|-%-------|-%-------|-%-------|-%-------|
A|---------|---------|---------|---------|---------|---------|---------|---------|---------|
E|---------|---------|---------|---------|---------|---------|---------|---------|---------|

E|---------|---------|---------|---------|---------|---------|---------|---------|---------|
B|---------|---------|---------|---------|---------|---------|---------|---------|---------|
G|-%-------|-%-------|-%-------|-%-------|-%-------|-%-------|-%-------|-%-------|-%-------|
D|-%-------|-%-------|-%-------|-%-------|-%-------|-%-------|-%-------|-%-------|-%-------|
A|---------|---------|---------|---------|---------|---------|---------|---------|---------|
E|---------|---------|---------|---------|---------|---------|---------|---------|---------|

E|---------|---------|---------|---------|---------|------------------------|-------------------------------------|
B|---------|---------|---------|---------|---------|------------------------|-------------------------------------|
G|-%-------|-%-------|-%-------|-%-------|-%-------|-%------%-----%---------|-------------------------------------|
D|-%-------|-%-------|-%-------|-%-------|-%-------|-%------%-----%---------|-----------5-------------------------|
A|---------|---------|---------|---------|---------|------------------------|------7--------------------7---------|
E|---------|---------|---------|---------|---------|-------------------0----|-0--------------6----5----------0----|

E|-------------------------------------|-------------------------------------|-------------------------------------|
B|-------------------------------------|-------------------------------------|-------------------------------------|
G|-------------------------------------|-------------------------------------|-------------------------------------|
D|-----------5-------------------------|-----------5-------------------------|-----------5-------------------------|
A|------7--------------------7---------|------7--------------------7---------|------7--------------------7---------|
E|-0--------------6----5----------0----|-0--------------6----5----------0----|-0--------------6----5----------0----|

E|-------------------------------------|-------------------------------------|-------------------------------------|
B|-------------------------------------|-------------------------------------|-------------------------------------|
G|-------------------------------------|-------------------------------------|-------------------------------------|
D|-----------5-------------------------|-----------5-------------------------|-----------5-------------------------|
A|------7--------------------7---------|------7--------------------7---------|------7--------------------7---------|
E|-0--------------6----5----------0----|-0--------------6----5----------0----|-0--------------6----5----------0----|

E|-------------------------------------|-------------------------------------|-------------------------------------|
B|-------------------------------------|-------------------------------------|-------------------------------------|
G|-------------------------------------|-----------2-------------------------|-----------2-------------------------|
D|-----------5-------------------------|------4--------------------4---------|------4--------------------4---------|
A|------7--------------------7---------|----------------3----2---------------|----------------3----2---------------|
E|-0--------------6----5----------2----|-2------------------------------2----|-2------------------------------2----|

E|-------------------------------------|-------------------------------------|-------------------------------------|
B|-------------------------------------|-------------------------------------|-------------------------------------|
G|-----------2-------------------------|-----------2-------------------------|-----------2-------------------------|
D|------4--------------------4---------|------4--------------------4---------|------4--------------------4---------|
A|----------------3----2---------------|----------------3----2---------------|----------------3----2---------------|
E|-2------------------------------2----|-2------------------------------2----|-2------------------------------2----|

E|-------------------------------------|---------|---------|---------|---------|---------|
B|-------------------------------------|---------|---------|---------|---------|---------|
G|-----------2-------------------------|-%-------|-%-------|-%-------|-%-------|-%-------|
D|------4--------------------4---------|-%-------|-%-------|-%-------|-%-------|-%-------|
A|----------------3----2---------------|---------|---------|---------|---------|---------|
E|-2------------------------------2----|---------|---------|---------|---------|---------|

E|---------|---------|---------|---------|---------|---------|---------|---------|---------|
B|---------|---------|---------|---------|---------|---------|---------|---------|---------|
G|-%-------|-%-------|-%-------|-%-------|-%-------|-%-------|-%-------|-%-------|-%-------|
D|-%-------|-%-------|-%-------|-%-------|-%-------|-%-------|-%-------|-%-------|-%-------|
A|---------|---------|---------|---------|---------|---------|---------|---------|---------|
E|---------|---------|---------|---------|---------|---------|---------|---------|---------|

E|---------|---------|---------|---------|---------|---------|---------|---------|---------|
B|---------|---------|---------|---------|---------|---------|---------|---------|---------|
G|-%-------|-%-------|-%-------|-%-------|-%-------|-%-------|-%-------|-%-------|-%-------|
D|-%-------|-%-------|-%-------|-%-------|-%-------|-%-------|-%-------|-%-------|-%-------|
A|---------|---------|---------|---------|---------|---------|---------|---------|---------|
E|---------|---------|---------|---------|---------|---------|---------|---------|---------|

E|---------|-------------------------------------|-------------------------------------|
B|---------|-------------------------------------|-------------------------------------|
G|-%-------|-%-----------------------------------|-------------------------------------|
D|-%-------|-%---------5-------------------------|-----------5-------------------------|
A|---------|------7--------------------7---------|------7--------------------7---------|
E|---------|----------------6----5----------0----|-0--------------6----5----------0----|

E|-------------------------------------|-------------------------------------|-------------------------------------|
B|-------------------------------------|-------------------------------------|-------------------------------------|
G|-------------------------------------|-------------------------------------|-------------------------------------|
D|-----------5-------------------------|-----------5-------------------------|-----------5-------------------------|
A|------7--------------------7---------|------7--------------------7---------|------7--------------------7---------|
E|-0--------------6----5----------0----|-0--------------6----5----------0----|-0--------------6----5----------0----|

E|-------------------------------------|-------------------------------------|-------------------------------------|
B|-------------------------------------|-------------------------------------|-------------------------------------|
G|-------------------------------------|-------------------------------------|-------------------------------------|
D|-----------5-------------------------|-----------5-------------------------|-----------5-------------------------|
A|------7--------------------7---------|------7--------------------7---------|------7--------------------7---------|
E|-0--------------6----5----------0----|-0--------------6----5----------0----|-0--------------6----5----------0----|

E|-------------------------------------|-------------------------------------|-------------------------------------|
B|-------------------------------------|-------------------------------------|-------------------------------------|
G|-------------------------------------|-------------------------------------|-------------------------------------|
D|-----------5-------------------------|-----------5-------------------------|-----------5-------------------------|
A|------7--------------------7---------|------7--------------------7---------|------7--------------------7---------|
E|-0--------------6----5----------0----|-0--------------6----5----------0----|-0--------------6----5----------0----|

E|-------------------------------------|-------------------------------------|-------------------------------------|
B|-------------------------------------|-------------------------------------|-------------------------------------|
G|-------------------------------------|-------------------------------------|-------------------------------------|
D|-----------5-------------------------|-----------5-------------------------|-----------5-------------------------|
A|------7--------------------7---------|------7--------------------7---------|------7--------------------7---------|
E|-0--------------6----5----------0----|-0--------------6----5----------0----|-0--------------6----5----------0----|

E|-------------------------------------|-------------------------------------|-------------------------------------|
B|-------------------------------------|-------------------------------------|-------------------------------------|
G|-------------------------------------|-------------------------------------|-------------------------------------|
D|-----------5-------------------------|-----------5-------------------------|-----------5-------------------------|
A|------7--------------------7---------|------7--------------------7---------|------7--------------------7---------|
E|-0--------------6----5----------0----|-0--------------6----5----------0----|-0--------------6----5----------0----|

E|-------------------------------------|-------------------------------------|-------------------------------------|
B|-------------------------------------|-------------------------------------|-------------------------------------|
G|-------------------------------------|-------------------------------------|-------------------------------------|
D|-----------5-------------------------|-----------5-------------------------|-----------5-------------------------|
A|------7--------------------7---------|------7--------------------7---------|------7--------------------7---------|
E|-0--------------6----5----------0----|-0--------------6----5----------0----|-0--------------6----5----------0----|

E|-------------------------------------|-------------------------------------|------------------------|
B|-------------------------------------|-------------------------------------|------------------------|
G|-------------------------------------|-------------------------------------|------%------%-----%----|
D|-----------5-------------------------|-----------5-------------------------|------%------%-----%----|
A|------7--------------------7---------|------7--------------------7---------|------------------------|
E|-0--------------6----5----------0----|-0--------------6----5----------0----|-0----------------------|
Metallica - Enter Sandman (3)
Metallica - Enter Sandman (3).gp3