Metallica - Escape

Metallica - Escape

Metallica



Title: Escape
Album: Ride The Lightning
Artist: Metallica
Author: 

Track 1: Guitare 1
E|---------|-----------------------------------------|------------------------------------|
B|---------|-----------------------------------------|------------------------------------|
G|-%-------|-----------------------------------------|------------------------------------|
D|-%-------|-7-----------------------------7----5----|-5------7----5---7---5--------------|
A|---------|-0----0----0----0----0----0--------------|-------------------------8----7-----|
E|---------|-----------------------------------------|------------------------------------|

E|-----------------------------------------|------------------------------------|-----------------------------------------|
B|-----------------------------------------|------------------------------------|-----------------------------------------|
G|-----------------------------------------|------------------------------------|-----------------------------------------|
D|-7-----------------------------7----5----|-5------7----5---7---5--------------|-7-----------------------------7----5----|
A|-0----0----0----0----0----0--------------|-------------------------8----7-----|-0----0----0----0----0----0--------------|
E|-----------------------------------------|------------------------------------|-----------------------------------------|

E|------------------------------------|-----------------------------------------|--------------------------------|
B|------------------------------------|-----------------------------------------|--------------------------------|
G|------------------------------------|-----------------------------------------|--------------------------------|
D|-5------7----5---7---5--------------|-7-----------------------------7----5----|-5------7----7---5--------------|
A|-------------------------8----7-----|-0----0----0----0----0----0--------------|---------------------8----8-----|
E|------------------------------------|-----------------------------------------|--------------------------------|

E|-----------------------------------------|-----------------------------------------|
B|-----------------------------------------|-----------------------------------------|
G|-----------------------------------------|-----------------------------------------|
D|------------------------------------7----|------------------------------------7----|
A|-0----0----0----0----0----0----0---------|-0----0----0----0----0----0----0---------|
E|-----------------------------------------|-----------------------------------------|

E|-----------------------------------------|-----------------------------------------|
B|-----------------------------------------|-----------------------------------------|
G|-----------------------------------------|-----------------------------------------|
D|------------------------------------7----|------------------------------------7----|
A|-0----0----0----0----0----0----0---------|-0----0----0----0----0----0----0---------|
E|-----------------------------------------|-----------------------------------------|

E|-----------------------------------------|-----------------------------------------|
B|-----------------------------------------|-----------------------------------------|
G|-----------------------------------------|-----------------------------------------|
D|------------------------------------5----|-----------------------------------------|
A|-0----0----0----0----0----0----0---------|-0----0----0----0----6----5----3----5----|
E|-----------------------------------------|-----------------------------------------|

E|-----------------------------------------|-----------------------------------------|
B|-----------------------------------------|-----------------------------------------|
G|-----------------------------------------|-----------------------------------------|
D|------------------------------------5----|-----------------------------------------|
A|-0----0----0----0----0----0----0---------|-0----0----0----0----6----5----3----5----|
E|-----------------------------------------|-----------------------------------------|

E|-----------------------------------------|--------------------------------------------|
B|-----------------------------------------|--------------------------------------------|
G|-----------------------------------------|--------------------------------------------|
D|-----------------------------------------|--------------------------------------------|
A|-4----4----4----4----4----4----4----4----|-4----4----4----4----4----4----4----5---5---|
E|-2----2----2----2----2----2----2----2----|-2----2----2----2----2----2----2----3---3---|

E|--------------------------------------------|--------------------------------------------|
B|--------------------------------------------|--------------------------------------------|
G|--------------------------------------------|--------------------------------------------|
D|--------------------------------------------|--------------------------------------------|
A|-5---5---4----4----4----4----4----4----4----|-4----4----4----4----4----4----4----5---5---|
E|-3---3---2----2----2----2----2----2----2----|-2----2----2----2----2----2----2----3---3---|

E|--------------------------------------------|--------------------------------------------|
B|--------------------------------------------|--------------------------------------------|
G|--------------------------------------------|--------------------------------------------|
D|--------------------------------------------|--------------------------------------------|
A|-5---5---4----4----4----4----4----4----4----|-4----4----4----4----4----4----4----5---5---|
E|-3---3---2----2----2----2----2----2----2----|-2----2----2----2----2----2----2----3---3---|

E|--------------------------------------------|---------------------------------|-----------------------------------------|
B|--------------------------------------------|---------------------------------|-----------------------------------------|
G|--------------------------------------------|---------------------------------|-----------------------------------------|
D|--------------------------------------------|---------------------------------|-----------------------------------------|
A|-5---5---4----4----4----4----4----4----4----|-4-----5-----X---2-----X---3-----|-4----4----4----4----4----4----4----4----|
E|-3---3---2----2----2----2----2----2----2----|-2-----3-----X---0-----X---1-----|-2----2----2----2----2----2----2----2----|

E|--------------------------------------------|--------------------------------------------|
B|--------------------------------------------|--------------------------------------------|
G|--------------------------------------------|--------------------------------------------|
D|--------------------------------------------|--------------------------------------------|
A|-4----4----4----4----4----4----4----5---5---|-5---5---4----4----4----4----4----4----4----|
E|-2----2----2----2----2----2----2----3---3---|-3---3---2----2----2----2----2----2----2----|

E|--------------------------------------------|--------------------------------------------|
B|--------------------------------------------|--------------------------------------------|
G|--------------------------------------------|--------------------------------------------|
D|--------------------------------------------|--------------------------------------------|
A|-4----4----4----4----4----4----4----5---5---|-5---5---4----4----4----4----4----4----4----|
E|-2----2----2----2----2----2----2----3---3---|-3---3---2----2----2----2----2----2----2----|

E|--------------------------------------------|--------------------------------------------|
B|--------------------------------------------|--------------------------------------------|
G|--------------------------------------------|--------------------------------------------|
D|--------------------------------------------|--------------------------------------------|
A|-4----4----4----4----4----4----4----5---5---|-5---5---4----4----4----4----4----4----4----|
E|-2----2----2----2----2----2----2----3---3---|-3---3---2----2----2----2----2----2----2----|

E|---------------------------------|---------|----------------------------|----------------------------|
B|---------------------------------|---------|----------------------------|----------------------------|
G|---------------------------------|---------|----------------------------|----------------------------|
D|---------------------------------|---------|----------------------------|----------------------------|
A|-4-----5-----X---2-----X---3-----|-7-------|-7------7--------------5----|-5------5--------------4----|
E|-2-----3-----X---0-----X---1-----|-5-------|-5------5----0----5----3----|-3------3----0----3----2----|

E|----------------------------|---------|----------------------------|----------------------------|
B|----------------------------|---------|----------------------------|----------------------------|
G|-----------------------2----|---------|----------------------------|----------------------------|
D|------------------4---------|---------|----------------------------|----------------------------|
A|-4-----------4--------------|-7-------|-7------7--------------5----|-5------5--------------4----|
E|-2------2-------------------|-5-------|-5------5----0----5----3----|-3------3----0----3----2----|

E|----------------------------|---------|----------------------------|----------------------------|
B|----------------------------|---------|----------------------------|----------------------------|
G|-----------------------2----|---------|----------------------------|----------------------------|
D|------------------4---------|---------|----------------------------|----------------------------|
A|-4-----------4--------------|-7-------|-7------7--------------5----|-5------5--------------4----|
E|-2------2-------------------|-5-------|-5------5----0----5----3----|-3------3----0----3----2----|

E|----------------------------|---------|----------------------------|----------------------------|
B|----------------------------|---------|----------------------------|----------------------------|
G|-----------------------2----|---------|----------------------------|----------------------------|
D|------------------4---------|---------|----------------------------|----------------------------|
A|-4-----------4--------------|-7-------|-7------7--------------5----|-5------5--------------4----|
E|-2------2-------------------|-5-------|-5------5----0----5----3----|-3------3----0----3----2----|

E|---------|-----------------------------------------|-----------------------------------------|
B|---------|-----------------------------------------|-----------------------------------------|
G|---------|-----------------------------------------|-----------------------------------------|
D|---------|------------------------------------5----|-----------------------------------------|
A|-4-------|-0----0----0----0----0----0----0---------|-0----0----0----0----6----5----3----5----|
E|-2-------|-----------------------------------------|-----------------------------------------|

E|-----------------------------------------|-----------------------------------------|
B|-----------------------------------------|-----------------------------------------|
G|-----------------------------------------|-----------------------------------------|
D|------------------------------------5----|-----------------------------------------|
A|-0----0----0----0----0----0----0---------|-0----0----0----0----6----5----3----5----|
E|-----------------------------------------|-----------------------------------------|

E|-----------------------------------------|--------------------------------------------|
B|-----------------------------------------|--------------------------------------------|
G|-----------------------------------------|--------------------------------------------|
D|-----------------------------------------|--------------------------------------------|
A|-4----4----4----4----4----4----4----4----|-4----4----4----4----4----4----4----5---5---|
E|-2----2----2----2----2----2----2----2----|-2----2----2----2----2----2----2----3---3---|

E|--------------------------------------------|--------------------------------------------|
B|--------------------------------------------|--------------------------------------------|
G|--------------------------------------------|--------------------------------------------|
D|--------------------------------------------|--------------------------------------------|
A|-5---5---4----4----4----4----4----4----4----|-4----4----4----4----4----4----4----5---5---|
E|-3---3---2----2----2----2----2----2----2----|-2----2----2----2----2----2----2----3---3---|

E|--------------------------------------------|--------------------------------------------|
B|--------------------------------------------|--------------------------------------------|
G|--------------------------------------------|--------------------------------------------|
D|--------------------------------------------|--------------------------------------------|
A|-5---5---4----4----4----4----4----4----4----|-4----4----4----4----4----4----4----5---5---|
E|-3---3---2----2----2----2----2----2----2----|-2----2----2----2----2----2----2----3---3---|

E|--------------------------------------------|---------------------------------|-----------------------------------------|
B|--------------------------------------------|---------------------------------|-----------------------------------------|
G|--------------------------------------------|---------------------------------|-----------------------------------------|
D|--------------------------------------------|---------------------------------|-----------------------------------------|
A|-5---5---4----4----4----4----4----4----4----|-4-----5-----X---2-----X---3-----|-4----4----4----4----4----4----4----4----|
E|-3---3---2----2----2----2----2----2----2----|-2-----3-----X---0-----X---1-----|-2----2----2----2----2----2----2----2----|

E|--------------------------------------------|--------------------------------------------|
B|--------------------------------------------|--------------------------------------------|
G|--------------------------------------------|--------------------------------------------|
D|--------------------------------------------|--------------------------------------------|
A|-4----4----4----4----4----4----4----5---5---|-5---5---4----4----4----4----4----4----4----|
E|-2----2----2----2----2----2----2----3---3---|-3---3---2----2----2----2----2----2----2----|

E|--------------------------------------------|--------------------------------------------|
B|--------------------------------------------|--------------------------------------------|
G|--------------------------------------------|--------------------------------------------|
D|--------------------------------------------|--------------------------------------------|
A|-4----4----4----4----4----4----4----5---5---|-5---5---4----4----4----4----4----4----4----|
E|-2----2----2----2----2----2----2----3---3---|-3---3---2----2----2----2----2----2----2----|

E|--------------------------------------------|--------------------------------------------|
B|--------------------------------------------|--------------------------------------------|
G|--------------------------------------------|--------------------------------------------|
D|--------------------------------------------|--------------------------------------------|
A|-4----4----4----4----4----4----4----5---5---|-5---5---4----4----4----4----4----4----4----|
E|-2----2----2----2----2----2----2----3---3---|-3---3---2----2----2----2----2----2----2----|

E|---------------------------------|---------|----------------------------|----------------------------|
B|---------------------------------|---------|----------------------------|----------------------------|
G|---------------------------------|---------|----------------------------|----------------------------|
D|---------------------------------|---------|----------------------------|----------------------------|
A|-4-----5-----X---2-----X---3-----|-7-------|-7------7--------------5----|-5------5--------------4----|
E|-2-----3-----X---0-----X---1-----|-5-------|-5------5----0----5----3----|-3------3----0----3----2----|

E|----------------------------|---------|----------------------------|----------------------------|
B|----------------------------|---------|----------------------------|----------------------------|
G|-----------------------2----|---------|----------------------------|----------------------------|
D|------------------4---------|---------|----------------------------|----------------------------|
A|-4-----------4--------------|-7-------|-7------7--------------5----|-5------5--------------4----|
E|-2------2-------------------|-5-------|-5------5----0----5----3----|-3------3----0----3----2----|

E|----------------------------|---------|----------------------------|----------------------------|
B|----------------------------|---------|----------------------------|----------------------------|
G|-----------------------2----|---------|----------------------------|----------------------------|
D|------------------4---------|---------|----------------------------|----------------------------|
A|-4-----------4--------------|-7-------|-7------7--------------5----|-5------5--------------4----|
E|-2------2-------------------|-5-------|-5------5----0----5----3----|-3------3----0----3----2----|

E|----------------------------|---------|----------------------------|----------------------------|
B|----------------------------|---------|----------------------------|----------------------------|
G|-----------------------2----|---------|----------------------------|----------------------------|
D|------------------4---------|---------|----------------------------|----------------------------|
A|-4-----------4--------------|-7-------|-7------7--------------5----|-5------5--------------4----|
E|-2------2-------------------|-5-------|-5------5----0----5----3----|-3------3----0----3----2----|

E|---------|-------------------------------------------------------|-------------------------------------------------------|
B|---------|-------------------------------------------------------|-------------------------------------------------------|
G|---------|----------------4----2---------------------2-----------|----------------4----2---------------------2-----------|
D|---------|-----------4----4----2----------------4----2----5------|-----------4----4----2----------------4----2----5------|
A|-4-------|------4---------2----0-----------4---------0----5------|------4---------2----0-----------4---------0----5------|
E|-2-------|-2--------------------------2-------------------3------|-2--------------------------2-------------------3------|

E|-------------------------------------------------|-------------------------------------------------|
B|-------------------------------------------------|-------------------------------------------------|
G|-------------------------------------------------|-------------------------------------------------|
D|-------------4-----2-----------------------------|-------------4-----2-----------------------------|
A|-4-----4-----2-----0-----4-----4-----5-----5-----|-4-----4-----2-----0-----4-----4-----5-----5-----|
E|-2-----2-----------------2-----2-----3-----3-----|-2-----2-----------------2-----2-----3-----3-----|

E|-------------------------------------------------|-------------------------------------------------|
B|-------------------------------------------------|-------------------------------------------------|
G|-------------------------------------------------|-------------------------------------------------|
D|-------------4-----2-----------------------------|-------------4-----2-----------------------------|
A|-4-----4-----2-----0-----4-----4-----5-----5-----|-4-----4-----2-----0-----2-----2-----5-----5-----|
E|-2-----2-----------------2-----2-----3-----3-----|-2-----2-----------------0-----0-----3-----3-----|

E|-----------------------------------------|-----------------------------------------|
B|-----------------------------------------|-----------------------------------------|
G|----------------4----2----2----2----2----|----------------2------------------------|
D|-----------4----4----2----2----2----2----|-----------4----2----5----5----5----5----|
A|------4---------2----0----0----0----0----|------4---------0----5----5----5----5----|
E|-2---------------------------------------|-2-------------------3----3----3----3----|

E|-------------------------------------------------------------|-----------------------------------------|
B|-------------------------------------------------------------|-----------------------------------------|
G|----------------2--------------------------------------------|-----------------------------------------|
D|-----------4-------------------------------------------------|------------------------------------0----|
A|------4--------------3----3----3----3----3----3----3----3----|-2---------------------------------------|
E|-2-------------------1----1----1----1----1----1----1----1----|-0----0----0----0----0----0----0---------|

E|-----------------------------------------|-----------------------------------------|
B|-----------------------------------------|-----------------------------------------|
G|-----------------------------------------|-----------------------------------------|
D|-----------------------------------------|------------------------------------0----|
A|-----------------------------------------|-2---------------------------------------|
E|-0----0----0----0----6----5----3----5----|-0----0----0----0----0----0----0---------|

E|-----------------------------------------|-----------------------------------------|
B|-----------------------------------------|-----------------------------------------|
G|-----------------------------------------|-----------------------------------------|
D|-----------------------------------------|------------------------------------0----|
A|-----------------------------------------|-2---------------------------------------|
E|-0----0----0----0----6----5----3----5----|-0----0----0----0----0----0----0---------|

E|-----------------------------------------|-----------------------------------------|
B|-----------------------------------------|-----------------------------------------|
G|-----------------------------------------|-----------------------------------------|
D|-----------------------------------------|------------------------------------0----|
A|-----------------------------------------|-2---------------------------------------|
E|-0----0----0----0----6----5----3----5----|-0----0----0----0----0----0----0---------|

E|-----------------------------------------|----------------------------|-------------------------------------|
B|-----------------------------------------|----------------------------|-------------------------------------|
G|-----------------------------------------|----------------------------|-------------------------------------|
D|-----------------------------------------|----------------------------|-------------------------------------|
A|-----------------------------------------|-2----4----4----2----4------|-2----4----4----2----2----5----5-----|
E|-0----0----0----0----6----5----3----5----|-0----2----2----0----2------|-0----2----2----0----0----3----3-----|

E|----------------------------|-------------------------------------|----------------------------|
B|----------------------------|-------------------------------------|----------------------------|
G|----------------------------|-------------------------------------|----------------------------|
D|----------------------------|-------------------------------------|----------------------------|
A|-2----4----4----2----4------|-2----4----4----2----2----5----5-----|-2----4----4----2----4------|
E|-0----2----2----0----2------|-0----2----2----0----0----3----3-----|-0----2----2----0----2------|

E|-------------------------------------|--------------------------------------------|
B|-------------------------------------|--------------------------------------------|
G|-------------------------------------|-------------------------------%------%-----|
D|-------------------------------------|-------------------------------%------%-----|
A|-2----4----4----2----2----5----5-----|-2----4----4----2----2----5-----------------|
E|-0----2----2----0----0----3----3-----|-0----2----2----0----0----3-----------------|

E|-----------------------------------------|-----------------------------------------|
B|-----------------------------------------|-----------------------------------------|
G|------------------------------------0----|-----------------------------------------|
D|-----------------------------------------|-----------------------------------------|
A|-2---------------------------------------|-----------------------------------------|
E|-0----0----0----0----0----0----0---------|-0----0----0----0----6----5----3----5----|

E|-----------------------------------------|-----------------------------------------|
B|-----------------------------------------|-----------------------------------------|
G|------------------------------------0----|-----------------------------------------|
D|-----------------------------------------|-----------------------------------------|
A|-2---------------------------------------|-----------------------------------------|
E|-0----0----0----0----0----0----0---------|-0----0----0----0----6----5----3----5----|

E|-----------------------------------------|-----------------------------------------|
B|-----------------------------------------|-----------------------------------------|
G|------------------------------------0----|-----------------------------------------|
D|-----------------------------------------|-----------------------------------------|
A|-2---------------------------------------|-----------------------------------------|
E|-0----0----0----0----0----0----0---------|-0----0----0----0----6----5----3----5----|

E|-----------------------------------------|-----------------------------------------|
B|-----------------------------------------|-----------------------------------------|
G|------------------------------------0----|-----------------------------------------|
D|-----------------------------------------|-----------------------------------------|
A|-2---------------------------------------|-----------------------------------------|
E|-0----0----0----0----0----0----0---------|-0----0----0----0----6----5----3----5----|

E|-----------------------------------------|-----------------------------------------|
B|-----------------------------------------|-----------------------------------------|
G|------------------------------------0----|-----------------------------------------|
D|-----------------------------------------|-----------------------------------------|
A|-2---------------------------------------|-----------------------------------------|
E|-0----0----0----0----0----0----0---------|-0----0----0----0----6----5----3----5----|

E|-----------------------------------------|-----------------------------------------|
B|-----------------------------------------|-----------------------------------------|
G|------------------------------------0----|-----------------------------------------|
D|-----------------------------------------|-----------------------------------------|
A|-2---------------------------------------|-----------------------------------------|
E|-0----0----0----0----0----0----0---------|-0----0----0----0----6----5----3----5----|

E|-----------------------------------------|-----------------------------------------|
B|-----------------------------------------|-----------------------------------------|
G|------------------------------------0----|-----------------------------------------|
D|-----------------------------------------|-----------------------------------------|
A|-2---------------------------------------|-----------------------------------------|
E|-0----0----0----0----0----0----0---------|-0----0----0----0----6----5----3----5----|

E|-----------------------------------------|-----------------------------------------|
B|-----------------------------------------|-----------------------------------------|
G|------------------------------------0----|-----------------------------------------|
D|-----------------------------------------|-----------------------------------------|
A|-2---------------------------------------|-----------------------------------------|
E|-0----0----0----0----0----0----0---------|-0----0----0----0----6----5----3----5----|

E|-----------------------------------------|-----------------------------------------|
B|-----------------------------------------|-----------------------------------------|
G|------------------------------------0----|-----------------------------------------|
D|-----------------------------------------|-----------------------------------------|
A|-2---------------------------------------|-----------------------------------------|
E|-0----0----0----0----0----0----0---------|-0----0----0----0----6----5----3----5----|

E|-----------------------------------------|-----------------------------------------|
B|-----------------------------------------|-----------------------------------------|
G|------------------------------------0----|-----------------------------------------|
D|-----------------------------------------|-----------------------------------------|
A|-2---------------------------------------|-----------------------------------------|
E|-0----0----0----0----0----0----0---------|-0----0----0----0----6----5----3----5----|

E|-----------------------------------------|-----------------------------------------|
B|-----------------------------------------|-----------------------------------------|
G|------------------------------------0----|-----------------------------------------|
D|-----------------------------------------|-----------------------------------------|
A|-2---------------------------------------|-----------------------------------------|
E|-0----0----0----0----0----0----0---------|-0----0----0----0----6----5----3----5----|

E|-----------------------------------------|-----------------------------------------|
B|-----------------------------------------|-----------------------------------------|
G|------------------------------------0----|-----------------------------------------|
D|-----------------------------------------|-----------------------------------------|
A|-2---------------------------------------|-----------------------------------------|
E|-0----0----0----0----0----0----0---------|-0----0----0----0----6----5----3----5----|

E|-----------------------------------------|-----------------------------------------|
B|-----------------------------------------|-----------------------------------------|
G|------------------------------------0----|-----------------------------------------|
D|-----------------------------------------|-----------------------------------------|
A|-2---------------------------------------|-----------------------------------------|
E|-0----0----0----0----0----0----0---------|-0----0----0----0----6----5----3----5----|

E|-----------------------------------------|-----------------------------------------|
B|-----------------------------------------|-----------------------------------------|
G|------------------------------------0----|-----------------------------------------|
D|-----------------------------------------|-----------------------------------------|
A|-2---------------------------------------|-----------------------------------------|
E|-0----0----0----0----0----0----0---------|-0----0----0----0----6----5----3----5----|

E|-----------------------------------------|-----------------------------------------|
B|-----------------------------------------|-----------------------------------------|
G|------------------------------------0----|-----------------------------------------|
D|-----------------------------------------|-----------------------------------------|
A|-2---------------------------------------|-----------------------------------------|
E|-0----0----0----0----0----0----0---------|-0----0----0----0----6----5----3----5----|

E|-----------------------------------------|-----------------------------------------|
B|-----------------------------------------|-----------------------------------------|
G|------------------------------------0----|-----------------------------------------|
D|-----------------------------------------|-----------------------------------------|
A|-2---------------------------------------|-----------------------------------------|
E|-0----0----0----0----0----0----0---------|-0----0----0----0----6----5----3----5----|

E|-----------------------------------------|-----------------------------------------|
B|-----------------------------------------|-----------------------------------------|
G|------------------------------------0----|-----------------------------------------|
D|-----------------------------------------|-----------------------------------------|
A|-2---------------------------------------|-----------------------------------------|
E|-0----0----0----0----0----0----0---------|-0----0----0----0----6----5----3----5----|

E|-----------------------------------------|-----------------------------------------|
B|-----------------------------------------|-----------------------------------------|
G|------------------------------------0----|-----------------------------------------|
D|-----------------------------------------|-----------------------------------------|
A|-2---------------------------------------|-----------------------------------------|
E|-0----0----0----0----0----0----0---------|-0----0----0----0----6----5----3----5----|

E|-----------------------------------------|-----------------------------------------|
B|-----------------------------------------|-----------------------------------------|
G|------------------------------------0----|-----------------------------------------|
D|-----------------------------------------|-----------------------------------------|
A|-2---------------------------------------|-----------------------------------------|
E|-0----0----0----0----0----0----0---------|-0----0----0----0----6----5----3----5----|

E|-----------------------------------------|-----------------------------------------|
B|-----------------------------------------|-----------------------------------------|
G|------------------------------------0----|-----------------------------------------|
D|-----------------------------------------|-----------------------------------------|
A|-2---------------------------------------|-----------------------------------------|
E|-0----0----0----0----0----0----0---------|-0----0----0----0----6----5----3----5----|

E|-----------------------------------------|-----------------------------------------|
B|-----------------------------------------|-----------------------------------------|
G|------------------------------------0----|-----------------------------------------|
D|-----------------------------------------|-----------------------------------------|
A|-2---------------------------------------|-----------------------------------------|
E|-0----0----0----0----0----0----0---------|-0----0----0----0----6----5----3----5----|

E|-----------------------------------------|-----------------------------------------|
B|-----------------------------------------|-----------------------------------------|
G|------------------------------------0----|-----------------------------------------|
D|-----------------------------------------|-----------------------------------------|
A|-2---------------------------------------|-----------------------------------------|
E|-0----0----0----0----0----0----0---------|-0----0----0----0----6----5----3----5----|

E|-----------------------------------------|-----------------------------------------|
B|-----------------------------------------|-----------------------------------------|
G|------------------------------------0----|-----------------------------------------|
D|-----------------------------------------|-----------------------------------------|
A|-2---------------------------------------|-----------------------------------------|
E|-0----0----0----0----0----0----0---------|-0----0----0----0----6----5----3----5----|

E|-----------------------------------------|-----------------------------------------|
B|-----------------------------------------|-----------------------------------------|
G|------------------------------------0----|-----------------------------------------|
D|-----------------------------------------|-----------------------------------------|
A|-2---------------------------------------|-----------------------------------------|
E|-0----0----0----0----0----0----0---------|-0----0----0----0----6----5----3----5----|
Metallica - Escape
Metallica - Escape.gp3