Metallica - Fade To Black (4)

Metallica - Fade To Black (4)

Metallica



Title: Fade To Black
Album: Ride The Lightning
Artist: MetallicA
Author: 

Track 1: Guitare 1 
E|---------|---------|---------|-----------------------------------------|-----------------------------------------|
B|---------|---------|---------|-----------------------------------------|-----------------------------------------|
G|-%-------|-%-------|-%-------|-----------0-----------------------------|-----------0-----------------------------|
D|-%-------|-%-------|-%-------|------4---------4---------4---------4----|------4---------4---------4---------4----|
A|---------|---------|---------|-2-------------------2---------5---------|-0-------------------0---------5---------|
E|---------|---------|---------|-----------------------------------------|-----------------------------------------|

E|-----------------------------------------|-----------------------------------------|
B|-----------------------------------------|-----------------------------------------|
G|-----------0-----------------------------|-----------2-----------------------------|
D|------4---------4---------4---------4----|------2---------2---------2---------2----|
A|-2-------------------2---------5---------|-4-------------------4---------0---------|
E|-----------------------------------------|-----------------------------------------|

E|-----------------------------------------|-----------------------------------------|
B|-----------------------------------------|-----------------------------------------|
G|-----------0-----------------------------|-----------0-----------------------------|
D|------4---------4---------4---------4----|------4---------4---------4---------4----|
A|-2-------------------2---------5---------|-0-------------------0---------5---------|
E|-----------------------------------------|-----------------------------------------|

E|-----------------------------------------|-----------------------------------------|
B|-----------------------------------------|-----------------------------------------|
G|-----------0-----------------------------|-----------2-----------------------------|
D|------4---------4---------4---------4----|------2---------2---------2---------2----|
A|-2-------------------2---------5---------|-4-------------------4---------0---------|
E|-----------------------------------------|-----------------------------------------|

E|-----------------------------------------|-----------------------------------------|
B|-----------------------------------------|-----------------------------------------|
G|-----------0-----------------------------|-----------0-----------------------------|
D|------4---------4---------4---------4----|------4---------4---------4---------4----|
A|-2-------------------2---------5---------|-0-------------------0---------5---------|
E|-----------------------------------------|-----------------------------------------|

E|-----------------------------------------|-----------------------------------------|
B|-----------------------------------------|-----------------------------------------|
G|-----------0-----------------------------|-----------2-----------------------------|
D|------4---------4---------4---------4----|------2---------2---------2---------2----|
A|-2-------------------2---------5---------|-4-------------------4---------0---------|
E|-----------------------------------------|-----------------------------------------|

E|-----------------------------------------|-----------------------------------------|
B|-----------------------------------------|-----------------------------------------|
G|-----------0-----------------------------|-----------0-----------------------------|
D|------4---------4---------4---------4----|------4---------4---------4---------4----|
A|-2-------------------2---------5---------|-0-------------------0---------5---------|
E|-----------------------------------------|-----------------------------------------|

E|-----------------------------------------|-----------------------------------------|
B|-----------------------------------------|-----------------------------------------|
G|-----------0-----------------------------|-----------2-----------------------------|
D|------4---------4---------4---------4----|------2---------2---------2---------2----|
A|-2-------------------2---------5---------|-4-------------------4---------0---------|
E|-----------------------------------------|-----------------------------------------|

E|-----------------------------------------|-----------------------------------------|
B|-----------------------------------------|-----------------------------------------|
G|-----------0-----------------------------|-----------0-----------------------------|
D|------4---------4---------4---------4----|------4---------4---------4---------4----|
A|-2-------------------2---------5---------|-0-------------------0---------5---------|
E|-----------------------------------------|-----------------------------------------|

E|-----------------------------------------|-----------------------------------------|
B|-----------------------------------------|-----------------------------------------|
G|-----------0-----------------------------|-----------2-----------------------------|
D|------4---------4---------4---------4----|------2---------2---------2---------2----|
A|-2-------------------2---------5---------|-4-------------------4---------0---------|
E|-----------------------------------------|-----------------------------------------|

E|-----------------------------------------|-----------------------------------------|
B|-----------------------------------------|-------------------------------0----3----|
G|-----------------------------------------|-----------1--------------1--------------|
D|-----------0-------------------2---------|------2--------------2-------------------|
A|------3-------------------2---------2----|-2--------------2------------------------|
E|-1--------------1----4-------------------|-----------------------------------------|

E|---------------------0----------------------|-----------------0----------------------|
B|-0----1--------------------------------1----|-1-----1---------------------------0----|
G|-2---------2-------------------0---2--------|-0-------------------------0---2--------|
D|-2--------------2---------2-----------------|------------2---------2-----------------|
A|-0------------------------------------------|-3--------------------------------------|
E|--------------------------------------------|----------------------------------------|

E|-----------------3---------3----3----|-----------------------------|---------------------0----------------------|
B|-0-----3-----------------------------|-----------------0-----3-----|-0----1--------------------------------1----|
G|-0-------------------------2----0----|-0---------------0-----4-----|-2---------2-------------------0---2--------|
D|------------0---------0--------------|-------2---------------------|-2--------------2---------2-----------------|
A|-------------------------------------|------------2----------------|-0------------------------------------------|
E|-3-----------------------------------|-3---------------------------|--------------------------------------------|

E|-----------------0----------------------|-----------------3--------------------------|
B|-1-----1---------------------------0----|-0-----3-------------------3----------------|
G|-0-------------------------0---2--------|-0-------------------------0---2---0---2----|
D|------------2---------2-----------------|------------0---------0---------------------|
A|-3--------------------------------------|--------------------------------------------|
E|----------------------------------------|-3------------------------------------------|

E|---------------------------------|---------------------0----------------------|-----------------0----------------------|
B|---------------------0-----3-----|-0----1--------------------------------1----|-1-----1---------------------------0----|
G|-0-------------------0-----4-----|-2---------2-------------------0---2--------|-0-------------------------0---2--------|
D|-2---------2---------------------|-2--------------2---------2-----------------|------------2---------2-----------------|
A|----------------2----------------|-0------------------------------------------|-3--------------------------------------|
E|------0--------------------------|--------------------------------------------|----------------------------------------|

E|-----------------3---------3----3----|-----------------------------|---------------------0----------------------|
B|-0-----3-----------------------------|-----------------0-----3-----|-0----1--------------------------------1----|
G|-0-------------------------2----0----|-0---------------0-----4-----|-2---------2-------------------0---2--------|
D|------------0---------0--------------|-------2---------------------|-2--------------2---------2-----------------|
A|-------------------------------------|------------2----------------|-0------------------------------------------|
E|-3-----------------------------------|-3---------------------------|--------------------------------------------|

E|-----------------0----------------------|-----------------3-------------------|---------------------------------|
B|-1-----1---------------------------0----|-0-----3-----------------------------|---------------------0-----3-----|
G|-0-------------------------0---2--------|-0-------------------------0----2----|-0-------------------0-----4-----|
D|------------2---------2-----------------|------------0---------0--------------|-2---------2---------------------|
A|-3--------------------------------------|-------------------------------------|----------------2----------------|
E|----------------------------------------|-3-----------------------------------|------0--------------------------|

E|---------------------0----------------------|-----------------0----------------------|
B|-0----1--------------------------------1----|-1-----1---------------------------0----|
G|-2---------2-------------------0---2--------|-0-------------------------0---2--------|
D|-2--------------2---------2-----------------|------------2---------2-----------------|
A|-0------------------------------------------|-3--------------------------------------|
E|--------------------------------------------|----------------------------------------|

E|-----------------3---------3----3----|-----------------------------|---------------------0----------------------|
B|-0-----3-----------------------------|-----------------0-----3-----|-0----1--------------------------------1----|
G|-0-------------------------2----0----|-0---------------0-----4-----|-2---------2-------------------0---2--------|
D|------------0---------0--------------|-------2---------------------|-2--------------2---------2-----------------|
A|-------------------------------------|------------2----------------|-0------------------------------------------|
E|-3-----------------------------------|-0---------------------------|--------------------------------------------|

E|-----------------0----------------------|-----------------3-------------------|---------------------------------|
B|-1-----1---------------------------0----|-0-----3-------------------3---------|---------------------0-----3-----|
G|-0-------------------------0---2--------|-0------------------------------2----|-0-------------------0-----4-----|
D|------------2---------2-----------------|------------0---------0--------------|-2---------2---------------------|
A|-3--------------------------------------|-------------------------------------|----------------2----------------|
E|----------------------------------------|-3-----------------------------------|------0--------------------------|

E|---------------------0----------------------|-----------------0----------------------|
B|-0----1--------------------------------1----|-1-----1---------------------------0----|
G|-2---------2-------------------0---2--------|-0-------------------------0---2--------|
D|-2--------------2---------2-----------------|------------2---------2-----------------|
A|-0------------------------------------------|-3--------------------------------------|
E|--------------------------------------------|----------------------------------------|

E|-----------------3---------3----3----|-----------------------------|---------------------0----------------------|
B|-0-----3-----------------------------|-----------------0-----3-----|-0----1--------------------------------1----|
G|-0-------------------------2----0----|-0---------------0-----4-----|-2---------2-------------------0---2--------|
D|------------0---------0--------------|-------2---------------------|-2--------------2---------2-----------------|
A|-------------------------------------|------------2----------------|-0------------------------------------------|
E|-3-----------------------------------|-0---------------------------|--------------------------------------------|

E|-----------------0----------------------|-----------------3-------------------|-------------------12----|
B|-1-----1---------------------------0----|-0-----3-------------------3---------|-------------12----------|
G|-0-------------------------0---2--------|-0------------------------------2----|-0-----12----------------|
D|------------2---------2-----------------|------------0---------0--------------|-------------------------|
A|-3--------------------------------------|-------------------------------------|-------------------------|
E|----------------------------------------|-3-----------------------------------|-0-----------------------|

E|---------|---------|---------|---------|---------|---------|---------|---------|---------|
B|---------|---------|---------|---------|---------|---------|---------|---------|---------|
G|-%-------|-%-------|-%-------|-%-------|-%-------|-%-------|-%-------|-%-------|-%-------|
D|-%-------|-%-------|-%-------|-%-------|-%-------|-%-------|-%-------|-%-------|-%-------|
A|---------|---------|---------|---------|---------|---------|---------|---------|---------|
E|---------|---------|---------|---------|---------|---------|---------|---------|---------|

E|---------|---------|---------|---------|---------|---------|---------|---------------------0----------------------|
B|---------|---------|---------|---------|---------|---------|---------|-0----1--------------------------------1----|
G|-%-------|-%-------|-%-------|-%-------|-%-------|-%-------|-%-------|-2---------2-------------------0---2--------|
D|-%-------|-%-------|-%-------|-%-------|-%-------|-%-------|-%-------|-2--------------2---------2-----------------|
A|---------|---------|---------|---------|---------|---------|---------|-0------------------------------------------|
E|---------|---------|---------|---------|---------|---------|---------|--------------------------------------------|

E|-----------------0----------------------|-----------------3---------3----3----|-----------------------------|
B|-1-----1---------------------------0----|-0-----3-----------------------------|-----------------0-----3-----|
G|-0-------------------------0---2--------|-0-------------------------2----0----|-0---------------0-----4-----|
D|------------2---------2-----------------|------------0---------0--------------|-------2---------------------|
A|-3--------------------------------------|-------------------------------------|------------2----------------|
E|----------------------------------------|-3-----------------------------------|-3---------------------------|

E|---------------------0----------------------|-----------------0----------------------|
B|-0----1--------------------------------1----|-1-----1---------------------------0----|
G|-2---------2-------------------0---2--------|-0-------------------------0---2--------|
D|-2--------------2---------2-----------------|------------2---------2-----------------|
A|-0------------------------------------------|-3--------------------------------------|
E|--------------------------------------------|----------------------------------------|

E|-----------------3--------------------------|---------------------------------|---------------------0----------------------|
B|-0-----3-------------------3----------------|---------------------0-----3-----|-0----1--------------------------------1----|
G|-0-------------------------0---2---0---2----|-0-------------------0-----4-----|-2---------2-------------------0---2--------|
D|------------0---------0---------------------|-2---------2---------------------|-2--------------2---------2-----------------|
A|--------------------------------------------|----------------2----------------|-0------------------------------------------|
E|-3------------------------------------------|------0--------------------------|--------------------------------------------|

E|-----------------0----------------------|-----------------3---------3----3----|-----------------------------|
B|-1-----1---------------------------0----|-0-----3-----------------------------|-----------------0-----3-----|
G|-0-------------------------0---2--------|-0-------------------------2----0----|-0---------------0-----4-----|
D|------------2---------2-----------------|------------0---------0--------------|-------2---------------------|
A|-3--------------------------------------|-------------------------------------|------------2----------------|
E|----------------------------------------|-3-----------------------------------|-0---------------------------|

E|---------------------0----------------------|-----------------0----------------------|
B|-0----1--------------------------------1----|-1-----1---------------------------0----|
G|-2---------2-------------------0---2--------|-0-------------------------0---2--------|
D|-2--------------2---------2-----------------|------------2---------2-----------------|
A|-0------------------------------------------|-3--------------------------------------|
E|--------------------------------------------|----------------------------------------|

E|-----------------3-------------------|---------------------------------|---------------------0----------------------|
B|-0-----3-------------------3---------|---------------------0-----3-----|-0----1--------------------------------1----|
G|-0------------------------------2----|-0-------------------0-----4-----|-2---------2-------------------0---2--------|
D|------------0---------0--------------|-2---------2---------------------|-2--------------2---------2-----------------|
A|-------------------------------------|----------------2----------------|-0------------------------------------------|
E|-3-----------------------------------|------0--------------------------|--------------------------------------------|

E|-----------------0----------------------|-----------------3---------3----3----|-----------------------------|
B|-1-----1---------------------------0----|-0-----3-----------------------------|-----------------0-----3-----|
G|-0-------------------------0---2--------|-0-------------------------2----0----|-0---------------0-----4-----|
D|------------2---------2-----------------|------------0---------0--------------|-------2---------------------|
A|-3--------------------------------------|-------------------------------------|------------2----------------|
E|----------------------------------------|-3-----------------------------------|-0---------------------------|

E|---------------------0----------------------|-----------------0----------------------|
B|-0----1--------------------------------1----|-1-----1---------------------------0----|
G|-2---------2-------------------0---2--------|-0-------------------------0---2--------|
D|-2--------------2---------2-----------------|------------2---------2-----------------|
A|-0------------------------------------------|-3--------------------------------------|
E|--------------------------------------------|----------------------------------------|

E|-----------------3-------------------|-------------------12----|---------|---------|
B|-0-----3-------------------3---------|-------------12----------|---------|---------|
G|-0------------------------------2----|-0-----12----------------|-%-------|-%-------|
D|------------0---------0--------------|-------------------------|-%-------|-%-------|
A|-------------------------------------|-------------------------|---------|---------|
E|-3-----------------------------------|-0-----------------------|---------|---------|

E|---------|---------|---------|---------|---------|---------|---------|---------|---------|
B|---------|---------|---------|---------|---------|---------|---------|---------|---------|
G|-%-------|-%-------|-%-------|-%-------|-%-------|-%-------|-%-------|-%-------|-%-------|
D|-%-------|-%-------|-%-------|-%-------|-%-------|-%-------|-%-------|-%-------|-%-------|
A|---------|---------|---------|---------|---------|---------|---------|---------|---------|
E|---------|---------|---------|---------|---------|---------|---------|---------|---------|

E|---------|---------|---------|---------|---------|---------|---------|---------|---------|
B|---------|---------|---------|---------|---------|---------|---------|---------|---------|
G|-%-------|-%-------|-%-------|-%-------|-%-------|-%-------|-%-------|-%-------|-%-------|
D|-%-------|-%-------|-%-------|-%-------|-%-------|-%-------|-%-------|-%-------|-%-------|
A|---------|---------|---------|---------|---------|---------|---------|---------|---------|
E|---------|---------|---------|---------|---------|---------|---------|---------|---------|

E|---------|---------|---------|---------|---------|---------|---------|---------|---------|
B|---------|---------|---------|---------|---------|---------|---------|---------|---------|
G|-%-------|-%-------|-%-------|-%-------|-%-------|-%-------|-%-------|-%-------|-%-------|
D|-%-------|-%-------|-%-------|-%-------|-%-------|-%-------|-%-------|-%-------|-%-------|
A|---------|---------|---------|---------|---------|---------|---------|---------|---------|
E|---------|---------|---------|---------|---------|---------|---------|---------|---------|

E|---------|---------|---------|---------|---------|---------|---------|---------|---------|
B|---------|---------|---------|---------|---------|---------|---------|---------|---------|
G|-%-------|-%-------|-%-------|-%-------|-%-------|-%-------|-%-------|-%-------|-%-------|
D|-%-------|-%-------|-%-------|-%-------|-%-------|-%-------|-%-------|-%-------|-%-------|
A|---------|---------|---------|---------|---------|---------|---------|---------|---------|
E|---------|---------|---------|---------|---------|---------|---------|---------|---------|

E|---------|---------|---------|---------|---------|---------|---------|---------|---------|
B|---------|---------|---------|---------|---------|---------|---------|---------|---------|
G|-%-------|-%-------|-%-------|-%-------|-%-------|-%-------|-%-------|-%-------|-%-------|
D|-%-------|-%-------|-%-------|-%-------|-%-------|-%-------|-%-------|-%-------|-%-------|
A|---------|---------|---------|---------|---------|---------|---------|---------|---------|
E|---------|---------|---------|---------|---------|---------|---------|---------|---------|

E|---------|---------|---------|---------|---------|---------|---------|---------|---------|
B|---------|---------|---------|---------|---------|---------|---------|---------|---------|
G|-%-------|-%-------|-%-------|-%-------|-%-------|-%-------|-%-------|-%-------|-%-------|
D|-%-------|-%-------|-%-------|-%-------|-%-------|-%-------|-%-------|-%-------|-%-------|
A|---------|---------|---------|---------|---------|---------|---------|---------|---------|
E|---------|---------|---------|---------|---------|---------|---------|---------|---------|

E|---------|---------|---------|---------|---------|---------|---------|---------|---------|
B|---------|---------|---------|---------|---------|---------|---------|---------|---------|
G|-%-------|-%-------|-%-------|-%-------|-%-------|-%-------|-%-------|-%-------|-%-------|
D|-%-------|-%-------|-%-------|-%-------|-%-------|-%-------|-%-------|-%-------|-%-------|
A|---------|---------|---------|---------|---------|---------|---------|---------|---------|
E|---------|---------|---------|---------|---------|---------|---------|---------|---------|

E|---------|---------|---------|---------|---------|---------|---------|---------|---------|
B|---------|---------|---------|---------|---------|---------|---------|---------|---------|
G|-%-------|-%-------|-%-------|-%-------|-%-------|-%-------|-%-------|-%-------|-%-------|
D|-%-------|-%-------|-%-------|-%-------|-%-------|-%-------|-%-------|-%-------|-%-------|
A|---------|---------|---------|---------|---------|---------|---------|---------|---------|
E|---------|---------|---------|---------|---------|---------|---------|---------|---------|

E|---------|---------|---------|---------|---------|---------|---------|---------|---------|
B|---------|---------|---------|---------|---------|---------|---------|---------|---------|
G|-%-------|-%-------|-%-------|-%-------|-%-------|-%-------|-%-------|-%-------|-%-------|
D|-%-------|-%-------|-%-------|-%-------|-%-------|-%-------|-%-------|-%-------|-%-------|
A|---------|---------|---------|---------|---------|---------|---------|---------|---------|
E|---------|---------|---------|---------|---------|---------|---------|---------|---------|

E|---------|---------|---------|---------|---------|---------|---------|---------|---------|
B|---------|---------|---------|---------|---------|---------|---------|---------|---------|
G|-%-------|-%-------|-%-------|-%-------|-%-------|-%-------|-%-------|-%-------|-%-------|
D|-%-------|-%-------|-%-------|-%-------|-%-------|-%-------|-%-------|-%-------|-%-------|
A|---------|---------|---------|---------|---------|---------|---------|---------|---------|
E|---------|---------|---------|---------|---------|---------|---------|---------|---------|

E|---------|---------|---------|---------|---------|---------|---------|---------|---------|
B|---------|---------|---------|---------|---------|---------|---------|---------|---------|
G|-%-------|-%-------|-%-------|-%-------|-%-------|-%-------|-%-------|-%-------|-%-------|
D|-%-------|-%-------|-%-------|-%-------|-%-------|-%-------|-%-------|-%-------|-%-------|
A|---------|---------|---------|---------|---------|---------|---------|---------|---------|
E|---------|---------|---------|---------|---------|---------|---------|---------|---------|

E|---------|---------|---------|---------|---------|---------|---------|---------|---------|
B|---------|---------|---------|---------|---------|---------|---------|---------|---------|
G|-%-------|-%-------|-%-------|-%-------|-%-------|-%-------|-%-------|-%-------|-%-------|
D|-%-------|-%-------|-%-------|-%-------|-%-------|-%-------|-%-------|-%-------|-%-------|
A|---------|---------|---------|---------|---------|---------|---------|---------|---------|
E|---------|---------|---------|---------|---------|---------|---------|---------|---------|

E|---------|---------|---------|---------|---------|---------|---------|---------|---------|
B|---------|---------|---------|---------|---------|---------|---------|---------|---------|
G|-%-------|-%-------|-%-------|-%-------|-%-------|-%-------|-%-------|-%-------|-%-------|
D|-%-------|-%-------|-%-------|-%-------|-%-------|-%-------|-%-------|-%-------|-%-------|
A|---------|---------|---------|---------|---------|---------|---------|---------|---------|
E|---------|---------|---------|---------|---------|---------|---------|---------|---------|
Metallica - Fade To Black (4)
Metallica - Fade To Black (4).gp4