Metallica - Fight Fire With Fire

Metallica



Title: Fight Fire With Fire
Album: 
Artist: 
Author: Metallica

Track 1: Acoustic Guitar (Intro)
E|-------------------|-0----1----0---1---0--------------|----------------------------|
B|-0-----1-----3-----|-----------------------3----1-----|------0---------------------|
G|-------------------|----------------------------------|-----------1----1---2---1---|
D|-------------------|----------------------------------|-2--------------2-----------|
A|-------0-----2-----|-3---------------------2----0-----|----------------------------|
E|-3-----------------|----------------------------------|----------------------------|

E|-------------------------------|-------------------|-0----1----0---1---0--------------|
B|-------------------------------|-0-----1-----3-----|-----------------------3----1-----|
G|-----------2--------------2----|-------------------|----------------------------------|
D|-0----4---------0----4---------|-------------------|----------------------------------|
A|-------------------------------|-------0-----2-----|-3---------------------2----0-----|
E|-------------------------------|-3-----------------|----------------------------------|

E|---------------------|-----------------------|-------------------|-0----1----0---1---0--------------|
B|-----------3----2----|-2---------------------|-0-----1-----3-----|-----------------------3----1-----|
G|------2--------------|-----------------------|-------------------|----------------------------------|
D|---------------------|-----------------------|-------------------|----------------------------------|
A|-2--------------2----|-0-----0----0-----0----|-------0-----2-----|-3---------------------2----0-----|
E|---------------------|-----------------------|-3-----------------|----------------------------------|

E|-5--------------5-----------|-3-----------------------------|-------------------|
B|------5---------X-----------|-----------3--------------3----|-0-----1-----3-----|
G|-----------6----6---7---6---|------4--------------4---------|-------------------|
D|----------------------------|-5--------------5--------------|-------------------|
A|----------------------------|-------------------------------|-------0-----2-----|
E|----------------------------|-------------------------------|-3-----------------|

E|-0----1----0---1---0--------------|----------------0--0----0----0--------------------3--3----3----3-----|
B|-----------------------3----1-----|-------------0--0--0----0----0-----------------3--3--3----3----3-----|
G|----------------------------------|----------0--0--0--0----0----0--------------0--0--0--0----0----0-----|
D|----------------------------------|-------2--2--2--2--2----2----2-----------0--0--0--0--0----0----0-----|
A|-3---------------------2----0-----|----2--2--2--2--2--2----2----2--------2--2--2--2--2--2----2----2-----|
E|----------------------------------|-0--0--0--0--0--0--0----0----0-----3--3--3--3--3--3--3----3----3-----|

E|----------------8--8--8-------8----|---------|---------|---------|---------|---------|
B|-------------8--8--8--8-------8----|---------|---------|---------|---------|---------|
G|----------9--9--9--9--9-------9----|-%-------|-%-------|-%-------|-%-------|-%-------|
D|-------10-10-10-10-10-10------10---|-%-------|-%-------|-%-------|-%-------|-%-------|
A|----10-10-10-10-10-10-10------10---|---------|---------|---------|---------|---------|
E|-8--8--8--8--8--8--8--8-------8----|---------|---------|---------|---------|---------|

E|---------|---------|---------|---------|---------|---------|---------|---------|---------|
B|---------|---------|---------|---------|---------|---------|---------|---------|---------|
G|-%-------|-%-------|-%-------|-%-------|-%-------|-%-------|-%-------|-%-------|-%-------|
D|-%-------|-%-------|-%-------|-%-------|-%-------|-%-------|-%-------|-%-------|-%-------|
A|---------|---------|---------|---------|---------|---------|---------|---------|---------|
E|---------|---------|---------|---------|---------|---------|---------|---------|---------|

E|---------|---------|---------|---------|---------|---------|---------|---------|---------|
B|---------|---------|---------|---------|---------|---------|---------|---------|---------|
G|-%-------|-%-------|-%-------|-%-------|-%-------|-%-------|-%-------|-%-------|-%-------|
D|-%-------|-%-------|-%-------|-%-------|-%-------|-%-------|-%-------|-%-------|-%-------|
A|---------|---------|---------|---------|---------|---------|---------|---------|---------|
E|---------|---------|---------|---------|---------|---------|---------|---------|---------|

E|---------|---------|---------|---------|---------|---------|---------|---------|---------|
B|---------|---------|---------|---------|---------|---------|---------|---------|---------|
G|-%-------|-%-------|-%-------|-%-------|-%-------|-%-------|-%-------|-%-------|-%-------|
D|-%-------|-%-------|-%-------|-%-------|-%-------|-%-------|-%-------|-%-------|-%-------|
A|---------|---------|---------|---------|---------|---------|---------|---------|---------|
E|---------|---------|---------|---------|---------|---------|---------|---------|---------|

E|---------|---------|---------|---------|---------|---------|---------|---------|---------|
B|---------|---------|---------|---------|---------|---------|---------|---------|---------|
G|-%-------|-%-------|-%-------|-%-------|-%-------|-%-------|-%-------|-%-------|-%-------|
D|-%-------|-%-------|-%-------|-%-------|-%-------|-%-------|-%-------|-%-------|-%-------|
A|---------|---------|---------|---------|---------|---------|---------|---------|---------|
E|---------|---------|---------|---------|---------|---------|---------|---------|---------|

E|---------|---------|---------|---------|---------|---------|---------|---------|---------|
B|---------|---------|---------|---------|---------|---------|---------|---------|---------|
G|-%-------|-%-------|-%-------|-%-------|-%-------|-%-------|-%-------|-%-------|-%-------|
D|-%-------|-%-------|-%-------|-%-------|-%-------|-%-------|-%-------|-%-------|-%-------|
A|---------|---------|---------|---------|---------|---------|---------|---------|---------|
E|---------|---------|---------|---------|---------|---------|---------|---------|---------|

E|---------|---------|---------|---------|---------|---------|---------|---------|---------|
B|---------|---------|---------|---------|---------|---------|---------|---------|---------|
G|-%-------|-%-------|-%-------|-%-------|-%-------|-%-------|-%-------|-%-------|-%-------|
D|-%-------|-%-------|-%-------|-%-------|-%-------|-%-------|-%-------|-%-------|-%-------|
A|---------|---------|---------|---------|---------|---------|---------|---------|---------|
E|---------|---------|---------|---------|---------|---------|---------|---------|---------|

E|---------|---------|---------|---------|---------|---------|---------|---------|----------------|
B|---------|---------|---------|---------|---------|---------|---------|---------|----------------|
G|-%-------|-%-------|-%-------|-%-------|-%-------|-%-------|-%-------|-%-------|-%-------%------|
D|-%-------|-%-------|-%-------|-%-------|-%-------|-%-------|-%-------|-%-------|-%-------%------|
A|---------|---------|---------|---------|---------|---------|---------|---------|----------------|
E|---------|---------|---------|---------|---------|---------|---------|---------|----------------|

E|----------------|---------|---------|---------|---------|---------|----------------|
B|----------------|---------|---------|---------|---------|---------|----------------|
G|-%-------%------|-%-------|-%-------|-%-------|-%-------|-%-------|-%-------%------|
D|-%-------%------|-%-------|-%-------|-%-------|-%-------|-%-------|-%-------%------|
A|----------------|---------|---------|---------|---------|---------|----------------|
E|----------------|---------|---------|---------|---------|---------|----------------|

E|----------------|---------|---------|---------|---------|---------|---------|---------|
B|----------------|---------|---------|---------|---------|---------|---------|---------|
G|-%-------%------|-%-------|-%-------|-%-------|-%-------|-%-------|-%-------|-%-------|
D|-%-------%------|-%-------|-%-------|-%-------|-%-------|-%-------|-%-------|-%-------|
A|----------------|---------|---------|---------|---------|---------|---------|---------|
E|----------------|---------|---------|---------|---------|---------|---------|---------|

E|---------|---------|----------------|----------------|---------|---------|---------|
B|---------|---------|----------------|----------------|---------|---------|---------|
G|-%-------|-%-------|-%-------%------|-%-------%------|-%-------|-%-------|-%-------|
D|-%-------|-%-------|-%-------%------|-%-------%------|-%-------|-%-------|-%-------|
A|---------|---------|----------------|----------------|---------|---------|---------|
E|---------|---------|----------------|----------------|---------|---------|---------|

E|---------|---------|----------------|----------------|---------|---------|---------|
B|---------|---------|----------------|----------------|---------|---------|---------|
G|-%-------|-%-------|-%-------%------|-%-------%------|-%-------|-%-------|-%-------|
D|-%-------|-%-------|-%-------%------|-%-------%------|-%-------|-%-------|-%-------|
A|---------|---------|----------------|----------------|---------|---------|---------|
E|---------|---------|----------------|----------------|---------|---------|---------|

E|---------|---------|---------|---------|---------|---------|---------|---------|---------|
B|---------|---------|---------|---------|---------|---------|---------|---------|---------|
G|-%-------|-%-------|-%-------|-%-------|-%-------|-%-------|-%-------|-%-------|-%-------|
D|-%-------|-%-------|-%-------|-%-------|-%-------|-%-------|-%-------|-%-------|-%-------|
A|---------|---------|---------|---------|---------|---------|---------|---------|---------|
E|---------|---------|---------|---------|---------|---------|---------|---------|---------|

E|------------|---------|---------|---------|---------|---------|---------|---------|
B|------------|---------|---------|---------|---------|---------|---------|---------|
G|-%-----%----|-%-------|-%-------|-%-------|-%-------|-%-------|-%-------|-%-------|
D|-%-----%----|-%-------|-%-------|-%-------|-%-------|-%-------|-%-------|-%-------|
A|------------|---------|---------|---------|---------|---------|---------|---------|
E|------------|---------|---------|---------|---------|---------|---------|---------|

E|---------|---------|---------|---------|---------|---------|---------|---------|---------|
B|---------|---------|---------|---------|---------|---------|---------|---------|---------|
G|-%-------|-%-------|-%-------|-%-------|-%-------|-%-------|-%-------|-%-------|-%-------|
D|-%-------|-%-------|-%-------|-%-------|-%-------|-%-------|-%-------|-%-------|-%-------|
A|---------|---------|---------|---------|---------|---------|---------|---------|---------|
E|---------|---------|---------|---------|---------|---------|---------|---------|---------|

E|---------|---------|---------|---------|---------|---------|---------|---------|---------|
B|---------|---------|---------|---------|---------|---------|---------|---------|---------|
G|-%-------|-%-------|-%-------|-%-------|-%-------|-%-------|-%-------|-%-------|-%-------|
D|-%-------|-%-------|-%-------|-%-------|-%-------|-%-------|-%-------|-%-------|-%-------|
A|---------|---------|---------|---------|---------|---------|---------|---------|---------|
E|---------|---------|---------|---------|---------|---------|---------|---------|---------|

E|---------|---------|---------|---------|---------|
B|---------|---------|---------|---------|---------|
G|-%-------|-%-------|-%-------|-%-------|-%-------|
D|-%-------|-%-------|-%-------|-%-------|-%-------|
A|---------|---------|---------|---------|---------|
E|---------|---------|---------|---------|---------|
Metallica - Fight Fire With Fire
Metallica - Fight Fire With Fire.gp3