Metallica - Fixxxer

Metallica - Fixxxer

Metallica



Title: Fixxxer
Album: 
Artist: 
Author: Metallica

Track 1: Guitar 1
D#|---------------0----0----13-------------|---------------0----0----13-------------|
A#|-17----15--17-----------------11---10---|-17----15--17-----------------11---10---|
F#|---------------9----9-------------------|---------------9----9-------------------|
C#|----------------------------------------|----------------------------------------|
G#|----------------------------------------|----------------------------------------|
D#|----------------------------------------|----------------------------------------|

D#|---------------0----0----13-------------|---------------0----0----13-------------|
A#|-17----15--17-----------------11---10---|-17----15--17-----------------11---10---|
F#|---------------9----9-------------------|---------------9----9-------------------|
C#|----------------------------------------|----------------------------------------|
G#|----------------------------------------|----------------------------------------|
D#|----------------------------------------|----------------------------------------|

D#|---------------0----0----13-------------|---------------0----0----13-------------|
A#|-17----15--17-----------------11---10---|-17----15--17-----------------11---10---|
F#|---------------9----9-------------------|---------------9----9-------------------|
C#|----------------------------------------|----------------------------------------|
G#|----------------------------------------|----------------------------------------|
D#|----------------------------------------|----------------------------------------|

D#|---------------0----0----13-------------|---------------0----0----13-------------|
A#|-17----15--17-----------------11---10---|-17----15--17-----------------11---10---|
F#|---------------9----9-------------------|---------------9----9-------------------|
C#|----------------------------------------|----------------------------------------|
G#|----------------------------------------|----------------------------------------|
D#|----------------------------------------|----------------------------------------|

D#|---------------0----0----13-------------|---------------0----0----13-------------|
A#|-17----15--17-----------------11---10---|-17----15--17-----------------11---10---|
F#|---------------9----9-------------------|---------------9----9-------------------|
C#|----------------------------------------|----------------------------------------|
G#|----------------------------------------|----------------------------------------|
D#|----------------------------------------|----------------------------------------|

D#|---------------0----0----13-------------|---------------0----0----13-------------|
A#|-17----15--17-----------------11---10---|-17----15--17-----------------11---10---|
F#|---------------9----9-------------------|---------------9----9-------------------|
C#|----------------------------------------|----------------------------------------|
G#|----------------------------------------|----------------------------------------|
D#|----------------------------------------|----------------------------------------|

D#|---------------|---------------0----0----13-------------|---------------0----0----13-------------|
A#|-17----15--17--|-17----15--17-----------------11---10---|-17----15--17-----------------11---10---|
F#|---------------|---------------9----9-------------------|---------------9----9-------------------|
C#|---------------|----------------------------------------|----------------------------------------|
G#|---------------|----------------------------------------|----------------------------------------|
D#|---------------|----------------------------------------|----------------------------------------|

D#|---------------0----0----13-------------|---------------0----0----13-------------|
A#|-17----15--17-----------------11---10---|-17----15--17-----------------11---10---|
F#|---------------9----9-------------------|---------------9----9-------------------|
C#|----------------------------------------|----------------------------------------|
G#|----------------------------------------|----------------------------------------|
D#|----------------------------------------|----------------------------------------|

D#|-------------------|----------------------------|-------------------|----------------------------|
A#|-------------------|----------------------------|-------------------|----------------------------|
F#|-------------------|-%--------------------------|-------------------|-%--------------------------|
C#|-------------------|-%----X----5---7-----5------|-------------------|-%---------5----7----5------|
G#|-5----7-------7----|----------------------------|-5----7-------7----|------X---------------------|
D#|-------------------|----------------------------|-------------------|----------------------------|

D#|-------------------|----------------------------|-------------------|----------------------------|
A#|-------------------|----------------------------|-------------------|----------------------------|
F#|-------------------|-%--------------------------|-------------------|-%---------5----------------|
C#|-------------------|-%----X----5---7-----5------|-------------------|-%--------------7----5------|
G#|-5----7-------7----|----------------------------|-5----7-------7----|------X---------------------|
D#|-------------------|----------------------------|-------------------|----------------------------|

D#|---------------------------------|---------------------------------|---------------------------------|
A#|---------------------------------|---------------------------------|---------------------------------|
F#|---------------------------------|-----------------------%---------|---------------------------------|
C#|---------------------5-----------|-X-----X-----X----X----%----X----|---------------------5-----------|
G#|-5----7----X----X---------7------|-X-----X-----X----X---------X----|-5----7----X----X---------7------|
D#|---------------------------------|-X-----X-----X----X---------X----|---------------------------------|

D#|-------------X----X----X----X----|---------------------------------|-------------------------------------|
A#|-------------X----X----X----X----|---------------------------------|-------------------------------------|
F#|-------------X----X----X----X----|---------------------------------|---------------------5---------------|
C#|-X-----X-------------------------|---------------------5-----------|---------------------5---------------|
G#|-X-----X-------------------------|-5----7----X----X---------7------|-5----7----X----X---------7-----5----|
D#|-X-----X-------------------------|---------------------------------|-------------------------------------|

D#|-----------------------------------------|-----------------------------------------|
A#|-----------------------------------------|-----------------------------------------|
F#|-----------------------------------------|-----------------------------------------|
C#|---------------------5-------------------|-----------------------------------------|
G#|-5----7----7----7---------7----7----7----|-5----7---------5------------------------|
D#|-----------------------------------------|-----------8---------7----8----5----7----|

D#|-----------------------------|-----------------------------|-----------------------------|
A#|-----------------------------|-----------------------------|-----------------------------|
F#|-----------------------------|-----------------------------|-----------------------------|
C#|-----------------------------|-----------------------------|-----------------------------|
G#|-------------7----5----7-----|-7---------------------8-----|-------------7----5----7-----|
D#|-0-----0---------------------|-------6----5----6-----------|-0-----0---------------------|

D#|------------------------|-----------------------------|-----------------------------|
A#|------------------------|-----------------------------|-----------------------------|
F#|------------------------|-----------------------------|-----------------------------|
C#|-------4----5----7------|-----------------------------|-----------------------------|
G#|-7---------------5------|-------------7----5----7-----|-7---------------------8-----|
D#|------------------------|-0-----0---------------------|-------6----5----6-----------|

D#|-----------------------------|------------------------|-----------------------------|
A#|-----------------------------|------------------------|-----------------------------|
F#|-----------------------------|------------------------|-----------------------------|
C#|-----------------------------|-------4----5----7------|-----------------------------|
G#|-------------7----5----7-----|-7---------------5------|-------------7----5----7-----|
D#|-0-----0---------------------|------------------------|-0-----0---------------------|

D#|-----------------------------|-----------------------------|------------------------|
A#|-----------------------------|-----------------------------|------------------------|
F#|-----------------------------|-----------------------------|------------------------|
C#|-----------------------------|-----------------------------|-------4----5----7------|
G#|-7---------------------8-----|-------------7----5----7-----|-7---------------5------|
D#|-------6----5----6-----------|-0-----0---------------------|------------------------|

D#|-----------------------------|-----------------------------|-----------------------------|
A#|-----------------------------|-----------------------------|-----------------------------|
F#|-----------------------------|-----------------------------|-----------------------------|
C#|-----------------------------|-----------------------------|-----------------------------|
G#|-------------7----5----7-----|-7---------------------8-----|-------------7----5----7-----|
D#|-0-----0---------------------|-------6----5----6-----------|-0-----0---------------------|

D#|------------------------|-------------------------------------|---------------------------------|
A#|------------------------|-------------------------------------|---------------------------------|
F#|------------------------|----------------9----9---------------|-----------------9---------------|
C#|-------4----5----7------|----------------9----9---------------|-----------------9---------------|
G#|-7---------------5------|-9----10---7----7----7----------7----|-10---9----7-----7-----7----7----|
D#|------------------------|---------------------------10--------|---------------------------------|

D#|-------------------------------------|------------------------|-------------------------------------|
A#|-------------------------------------|------------------------|-------------------------------------|
F#|----------------9----9---------------|-----------------7------|----------------9----9---------------|
C#|----------------9----9---------------|-----------------7------|----------------9----9---------------|
G#|-9----10---7----7----7----------7----|-10---9----5-----5------|-9----10---7----7----7----------7----|
D#|---------------------------10--------|------------------------|---------------------------10--------|

D#|---------------------------------|-------------------------------------|---------------------------------|
A#|---------------------------------|-------------------------------------|---------------------------------|
F#|-----------------9---------------|----------------9----9---------------|---------------------------------|
C#|-----------------9---------------|----------------9----9---------------|---------------------------------|
G#|-10---9----7-----7-----7----7----|-9----10---7----7----7----------7----|-10---9----5----7----5------5----|
D#|---------------------------------|---------------------------10--------|---------------------------------|

D#|-------------------------------------|---------------------------------|-------------------------------------|
A#|-------------------------------------|---------------------------------|-------------------------------------|
F#|----------------7----7---------------|-----------------7---------------|----------------7----7---------------|
C#|----------------7----7---------------|-----------------7---------------|----------------7----7---------------|
G#|-7----8----5----5----5----------5----|-8----7----5-----5-----5----5----|-7----8----5----5----5----------5----|
D#|---------------------------8---------|---------------------------------|---------------------------8---------|

D#|---------------------------------|-------------------------------------|---------------------------------|
A#|---------------------------------|-------------------------------------|---------------------------------|
F#|---------------------------------|----------------7----7---------------|-----------------7---------------|
C#|---------------------------------|----------------7----7---------------|-----------------7---------------|
G#|-8----7----3----5----3------3----|-7----8----5----5----5----------5----|-8----7----5-----5-----5----5----|
D#|---------------------------------|---------------------------8---------|---------------------------------|

D#|-------------------------------------|---------------|---------|---------------|
A#|-------------------------------------|---------------|---------|---------------|
F#|----------------7----7---------------|---------------|---------|---------------|
C#|----------------7----7---------------|-5-------------|---------|---------------|
G#|-7----8----5----5----5-----7----8----|---------------|---------|---------------|
D#|-------------------------------------|---------0-----|-0-------|-0-------0-----|

D#|---------|---------------------------------|---------|---------------------------------|
A#|---------|---------------------------------|---------|---------------------------------|
F#|---------|---------------------------------|---------|---------------------------------|
C#|---------|-----------5----7----7-----5-----|-5-------|-----------5----7----7-----5-----|
G#|-2-------|-5----7--------------------------|-5-------|-5----7--------------------------|
D#|-0-------|---------------------------------|-3-------|---------------------------------|

D#|---------|---------------------------------|---------|--------------------|---------|
A#|---------|---------------------------------|---------|--------------------|---------|
F#|-7-------|---------------------------------|-5-------|-4------------------|---------|
C#|-7-------|-----------5----7----7-----5-----|-5-------|-4------------------|---------|
G#|-5-------|-5----7--------------------------|-3-------|-2------0-----------|-2-------|
D#|---------|---------------------------------|---------|--------------3-----|-0-------|

D#|---------------------------------|---------|---------------------------------|---------|
A#|---------------------------------|---------|---------------------------------|---------|
F#|---------------------------------|---------|---------------------------------|-7-------|
C#|-----------5----7----7-----5-----|-5-------|-----------5----7----7-----5-----|-7-------|
G#|-5----7--------------------------|-5-------|-5----7--------------------------|-5-------|
D#|---------------------------------|-3-------|---------------------------------|---------|

D#|---------------------------------|---------|-----------------------------------------|
A#|---------------------------------|---------|-----------------------------------------|
F#|---------------------------------|-5-------|-----------------------------------------|
C#|-----------5----7----7-----5-----|-5-------|-----------------------------------------|
G#|-5----7--------------------------|-3-------|-5----7---------5------------------------|
D#|---------------------------------|---------|-----------8---------7----8----5----7----|

D#|-----------------------------|-----------------------------|-----------------------------|
A#|-----------------------------|-----------------------------|-----------------------------|
F#|-----------------------------|-----------------------------|-----------------------------|
C#|-----------------------------|-----------------------------|-----------------------------|
G#|-------------7----5----7-----|-7---------------------8-----|-------------7----5----7-----|
D#|-0-----0---------------------|-------6----5----6-----------|-0-----0---------------------|

D#|------------------------|-----------------------------|-----------------------------|
A#|------------------------|-----------------------------|-----------------------------|
F#|------------------------|-----------------------------|-----------------------------|
C#|-------4----5----7------|-----------------------------|-----------------------------|
G#|-7---------------5------|-------------7----5----7-----|-7---------------------8-----|
D#|------------------------|-0-----0---------------------|-------6----5----6-----------|

D#|-----------------------------|------------------------|-------------------------------------|
A#|-----------------------------|------------------------|-------------------------------------|
F#|-----------------------------|------------------------|----------------9----9---------------|
C#|-----------------------------|-------4----5----7------|----------------9----9---------------|
G#|-------------7----5----7-----|-7---------------5------|-9----10---7----7----7----------7----|
D#|-0-----0---------------------|------------------------|---------------------------10--------|

D#|---------------------------------|-------------------------------------|------------------------|
A#|---------------------------------|-------------------------------------|------------------------|
F#|-----------------9---------------|----------------9----9---------------|-----------------7------|
C#|-----------------9---------------|----------------9----9---------------|-----------------7------|
G#|-10---9----7-----7-----7----7----|-9----10---7----7----7----------7----|-10---9----5-----5------|
D#|---------------------------------|---------------------------10--------|------------------------|

D#|-------------------------------------|---------------------------------|-------------------------------------|
A#|-------------------------------------|---------------------------------|-------------------------------------|
F#|----------------9----9---------------|-----------------9---------------|----------------9----9---------------|
C#|----------------9----9---------------|-----------------9---------------|----------------9----9---------------|
G#|-9----10---7----7----7----------7----|-10---9----7-----7-----7----7----|-9----10---7----7----7----------7----|
D#|---------------------------10--------|---------------------------------|---------------------------10--------|

D#|------------------------|-------------------------------------|---------------------------------|
A#|------------------------|-------------------------------------|---------------------------------|
F#|-----------------7------|----------------7----7---------------|-----------------7---------------|
C#|-----------------7------|----------------7----7---------------|-----------------7---------------|
G#|-10---9----5-----5------|-7----8----5----5----5----------5----|-8----7----5-----5-----5----5----|
D#|------------------------|---------------------------8---------|---------------------------------|

D#|-------------------------------------|---------------------------------|-------------------------------------|
A#|-------------------------------------|---------------------------------|-------------------------------------|
F#|----------------7----7---------------|---------------------------------|----------------7----7---------------|
C#|----------------7----7---------------|---------------------------------|----------------7----7---------------|
G#|-7----8----5----5----5----------5----|-8----7----3----5----3------3----|-7----8----5----5----5----------5----|
D#|---------------------------8---------|---------------------------------|---------------------------8---------|

D#|---------------------------------|-------------------------------------|---------------|
A#|---------------------------------|-------------------------------------|---------------|
F#|-----------------7---------------|----------------7----7---------------|---------------|
C#|-----------------7---------------|----------------7----7---------------|-5-------------|
G#|-8----7----5-----5-----5----5----|-7----8----5----5----5-----7----8----|---------------|
D#|---------------------------------|-------------------------------------|---------0-----|

D#|-------------------|---------------------------------|---------|---------------------------------|
A#|-------------------|---------------------------------|---------|---------------------------------|
F#|-------------------|---------------------------------|---------|---------------------------------|
C#|--------------X----|-X----X----X-----X----X----------|---------|-----------5----7----7-----5-----|
G#|--------------X----|-X----X----X-----X----X----0-----|-2-------|-5----7--------------------------|
D#|-0-------0----X----|-X----X----X-----X----X----0-----|-0-------|---------------------------------|

D#|---------|---------------------------------|---------|---------------------------------|
A#|---------|---------------------------------|---------|---------------------------------|
F#|---------|---------------------------------|-7-------|---------------------------------|
C#|-5-------|-----------5----7----7-----5-----|-7-------|-----------5----7----7-----5-----|
G#|-5-------|-5----7--------------------------|-5-------|-5----7--------------------------|
D#|-3-------|---------------------------------|---------|---------------------------------|

D#|---------|--------------------|---------|---------------------------------|---------|
A#|---------|--------------------|---------|---------------------------------|---------|
F#|-5-------|-4------------------|---------|---------------------------------|---------|
C#|-5-------|-4------------------|---------|-----------5----7----7-----5-----|-5-------|
G#|-3-------|-2------0-----------|-2-------|-5----7--------------------------|-5-------|
D#|---------|--------------3-----|-0-------|---------------------------------|-3-------|

D#|---------------------------------|---------|---------------------------------|---------|
A#|---------------------------------|---------|---------------------------------|---------|
F#|---------------------------------|-7-------|---------------------------------|-5-------|
C#|-----------5----7----7-----5-----|-7-------|-----------5----7----7-----5-----|-5-------|
G#|-5----7--------------------------|-5-------|-5----7--------------------------|-3-------|
D#|---------------------------------|---------|---------------------------------|---------|

D#|-----------------------------------------|---------|---------|---------|---------|
A#|-----------------------------------------|---------|---------|---------|---------|
F#|-----------------------------------------|---------|---------|---------|---------|
C#|-----------------------------------------|---------|---------|---------|---------|
G#|-5----7---------5------------------------|---------|---------|---------|---------|
D#|-----------8---------7----8----5----7----|-0-------|-0-------|-0-------|-0-------|

D#|-------------------------|---------|-------------------------|-------------------|
A#|-------------------------|---------|-------------------------|-------------------|
F#|-------------12----------|---------|-------------12----------|-------------------|
C#|-12---14-----12---14-----|-14------|-12---14-----12---14-----|-14------14---0----|
G#|-12---14----------14-----|-14------|-12---14----------14-----|-14------14---0----|
D#|-------------------------|---------|-------------------------|-------------------|

D#|-------------------------|-----------------------------|-------------------------|
A#|-------------------------|-----------------------------|-------------------------|
F#|-------------12----------|-------------12--------------|-------------------------|
C#|-12---14-----12---14-----|-12---14-----12---14---------|-------------5-----------|
G#|-12---14----------14-----|-12---14----------14---12----|-5----7------5----7------|
D#|-------------------------|-----------------------12----|-5----7-----------7------|

D#|-----------------------------------------|-----------------------------|-----------------------------|
A#|-----------------------------------------|-----------------------------|-----------------------------|
F#|-----------------------------------------|-----------------------------|-----------------------------|
C#|-----------------------------------------|-----------------------------|-----------------------------|
G#|-5----7---------5------------------------|-------------9----7----9-----|-9---------------------10----|
D#|-----------8---------7----8----5----7----|-2-----2---------------------|-------8----7----8-----------|

D#|-----------------------------|----------------------------|-----------------------------|
A#|-----------------------------|----------------------------|-----------------------------|
F#|-----------------------------|----------------------------|-----------------------------|
C#|-----------------------------|-----------6----7----9------|-----------------------------|
G#|-------------9----7----9-----|-9----9--------------7------|-------------9----7----9-----|
D#|-2-----2---------------------|----------------------------|-2-----2---------------------|

D#|-----------------------------|-----------------------------|-------------------------------------|
A#|-----------------------------|-----------------------------|-------------------------------------|
F#|-----------------------------|-----------------------------|-------------------------------------|
C#|-----------------------------|-----------------------------|-----------6----7----9---------------|
G#|-9---------------------10----|-------------9----7----9-----|-9----9--------------7-----7----5----|
D#|-------8----7----8-----------|-2-----2---------------------|-------------------------------------|

D#|-----------------------------|-----------------------------|-----------------------------|
A#|-----------------------------|-----------------------------|-----------------------------|
F#|-----------------------------|-----------------------------|-----------------------------|
C#|-----------------------------|-----------------------------|-----------------------------|
G#|-------------7----5----7-----|-7---------------------8-----|-------------7----5----7-----|
D#|-0-----0---------------------|-------6----5----6-----------|-0-----0---------------------|

D#|------------------------|-----------------------------|-----------------------------|
A#|------------------------|-----------------------------|-----------------------------|
F#|------------------------|-----------------------------|-----------------------------|
C#|-------4----5----7------|-----------------------------|-----------------------------|
G#|-7---------------5------|-------------7----5----7-----|-7---------------------8-----|
D#|------------------------|-0-----0---------------------|-------6----5----6-----------|

D#|-----------------------------|-------------------------------------|-----------------------------|
A#|-----------------------------|-------------------------------------|-----------------------------|
F#|-----------------------------|-------------------------------------|-----------------------------|
C#|-----------------------------|-----------4----5----7---------------|-----------------------------|
G#|-------------7----5----7-----|-7----7--------------5-----5----7----|-------------7----5----7-----|
D#|-0-----0---------------------|-------------------------------------|-0-----0---------------------|

D#|-----------------------------|-----------------------------|------------------------|
A#|-----------------------------|-----------------------------|------------------------|
F#|-----------------------------|-----------------------------|------------------------|
C#|-----------------------------|-----------------------------|-------4----5----7------|
G#|-7---------------------8-----|-------------7----5----7-----|-7---------------5------|
D#|-------6----5----6-----------|-0-----0---------------------|------------------------|

D#|-----------------------------|-----------------------------|-----------------------------|
A#|-----------------------------|-----------------------------|-----------------------------|
F#|-----------------------------|-----------------------------|-----------------------------|
C#|-----------------------------|-----------------------------|-----------------------------|
G#|-------------7----5----7-----|-7---------------------8-----|-------------7----5----7-----|
D#|-0-----0---------------------|-------6----5----6-----------|-0-----0---------------------|

D#|-----------------------------|---------------------------------|-------------------------|
A#|-----------------------------|---------------------------------|-------------------------|
F#|-----------------------------|---------------------------------|-------------2-----------|
C#|-----------------------------|---------------------------------|-2----4------2----4------|
G#|-------------7----5----7-----|-10---9----10----14---12---14----|-2----4-----------4------|
D#|-0-----0---------------------|---------------------------------|-------------------------|

D#|-------------------------------------|-------------------------|-------------------------------------|
A#|-------------------------------------|-------------------------|-------------------------------------|
F#|-----------2----4----4-----2---------|-------------2-----------|-----------2----4----4-----2---------|
C#|-2----4----2----4----4-----2----4----|-2----4------2----4------|-2----4----2----4----4-----2----4----|
G#|-2----4-------------------------4----|-2----4-----------4------|-2----4-------------------------4----|
D#|-------------------------------------|-------------------------|-------------------------------------|

D#|-------------------------|-------------------------------------|-------------------------|
A#|-------------------------|-------------------------------------|-------------------------|
F#|-------------2-----------|-----------2----4----4-----2---------|-------------2-----------|
C#|-2----4------2----4------|-2----4----2----4----4-----2----4----|-2----4------2----4------|
G#|-2----4-----------4------|-2----4-------------------------4----|-2----4-----------4------|
D#|-------------------------|-------------------------------------|-------------------------|

D#|-------------------------------------|-------------------------|---------|-------------------------|
A#|-------------------------------------|-------------------------|---------|-------------------------|
F#|-----------2----4----4-----2---------|-------------2-----------|---------|-------------2-----------|
C#|-2----4----2----4----4-----2----4----|-2----4------2----4------|-4-------|-2----4------2----4------|
G#|-2----4-------------------------4----|-2----4-----------4------|-4-------|-2----4-----------4------|
D#|-------------------------------------|-------------------------|---------|-------------------------|

D#|--------------------------------------|-------------------|-------------------|---------|
A#|--------------------------------------|-------------------|-------------------|---------|
F#|--------------------------------------|-------------------|-------------------|---------|
C#|-4------------------------------------|-------------------|-------------------|---------|
G#|-4------------------------------------|-------------------|-------------------|---------|
D#|--------4----0----0----0----0----0----|-0-------0----0----|-0-------0----0----|-0-------|

D#|----------------------------------------------------|--------------------------------|
A#|----------------------------------------------------|--------------------------------|
F#|------------%---------%---------%---------%---------|--------------------------------|
C#|------------%---------%---------%---------%---------|--------------------------------|
G#|----------------------------------------------------|----------------7---7-----------|
D#|-0-----0---------0---------0---------0---------0----|-0-----0---2-------------7------|

D#|---------|---------|---------|-------------------|----------------------------|------------------------|
A#|---------|---------|---------|-------------------|----------------------------|------------------------|
F#|-%-------|-%-------|-%-------|-------------------|-%--------------------------|------------------------|
C#|-%-------|-%-------|-%-------|-------------------|-%----X----5---7-----5------|------------------------|
G#|---------|---------|---------|-5----7----7-------|----------------------------|-5----7-----7------7----|
D#|---------|---------|---------|-------------------|----------------------------|------------------------|

D#|----------------------------|-------------------|----------------------------|------------------------|
A#|----------------------------|-------------------|----------------------------|------------------------|
F#|----------------------------|-------------------|-%--------------------------|------------------------|
C#|-----------5----7----5------|-------------------|-%----X----5---7-----5------|------------------------|
G#|-0----X---------------------|-5----7----7-------|----------------------------|-5----7-----7------7----|
D#|----------------------------|-------------------|----------------------------|------------------------|

D#|---------------------------------|-----------------------------|--------------------------------------------|
A#|---------------------------------|-----------------------------|--------------------------------------------|
F#|---------------------------------|-----------------------------|-------------------------------X---X---X----|
C#|-----------5----7----7-----5-----|-----------------5-----------|-------------------------------X---X---X----|
G#|-0----X--------------------------|-5----7---------------7------|-0----X----X----X----X----X----X---X---X----|
D#|---------------------------------|------------0----------------|--------------------------------------------|

D#|---------------------------------|---------------------------------|---------------------------------|
A#|---------------------------------|---------------------------------|---------------------------------|
F#|---------------------------------|---------------------------------|---------------------------------|
C#|---------------------5-----------|----------------5----7-----7-----|---------------------5-----------|
G#|-5----7-------------------7------|-0----5----7---------------------|-5----7----X----X---------7------|
D#|-----------0----0----------------|---------------------------------|---------------------------------|

D#|-------------------------------------|---------------------------------|---------------------------------|
A#|-------------------------------------|---------------------------------|---------------------------------|
F#|-%-----------------------------------|---------------------------------|-%-------------------------------|
C#|-%---------5---------5----7----5-----|---------------------5-----------|-%-------------------------------|
G#|------7---------7--------------------|-5----7----X----X---------7------|------7----5---------------------|
D#|-------------------------------------|---------------------------------|----------------7----5-----5-----|

D#|---------------------------------|-------------------------------------|-------------------------------------|
A#|---------------------------------|-------------------------------------|-------------------------------------|
F#|---------------------------------|-%---------7----7----7-----7----9----|--------------------------------%----|
C#|---------------------5-----------|-%----9------------------------------|---------------------5----------%----|
G#|-5----7----X----X---------7------|-------------------------------------|-5----7----X----X---------7----------|
D#|---------------------------------|-------------------------------------|-------------------------------------|

D#|-------------------------------------------|-----------------------------------------|
A#|-------------------------------------------|-----------------------------------------|
F#|------7----9---7--------7----9---7---------|-----------------------------------------|
C#|-9-----------------9-----------------9-----|---------------------5-------------------|
G#|-------------------------------------------|-5----7----X----X---------7----X----X----|
D#|-------------------------------------------|-----------------------------------------|

D#|-----------------------------------------|-------------------------------0---------|
A#|-----------------------------------------|------------------------------------0----|
F#|-----------------------------------------|-----------------------------------------|
C#|---------------------5-------------------|---------------------5-------------------|
G#|-5----7----X----X---------7----X----X----|-5----7----7----7---------7--------------|
D#|-----------------------------------------|-----------------------------------------|

D#|-----------------------------------------|-------------------------|---------------------------------|
A#|-----------------------------------------|-------------------------|---------------------------------|
F#|-----------------------------------------|-------------------7-----|---------------------------------|
C#|-----------------------------------------|-------------5-----------|-----------5----7----7-----5-----|
G#|-5----7---------5------------------------|-------7-----------------|-5----7--------------------------|
D#|-----------8---------7----8----5----7----|-0-----------------------|---------------------------------|

D#|-------------------------|-------------------------------------|-------------------------|
A#|-------------------------|-------------------------------------|-------------------------|
F#|-------------------7-----|-------------------------------------|-------------------7-----|
C#|-------------5-----------|-----------5----7----7-----5----7----|-------------5-----------|
G#|-------7-----------------|-5----7------------------------------|-------7-----------------|
D#|-0-----------------------|-------------------------------------|-0-----------------------|

D#|---------------------------------|-------------------------|-------------------------------------|
A#|---------------------------------|-------------------------|-------------------------------------|
F#|---------------------------------|-------------------7-----|-------------------------------------|
C#|-----------5----7----7-----5-----|-------------5-----------|-----------5----7----7-----5----7----|
G#|-5----7--------------------------|-------7-----------------|-5----7------------------------------|
D#|---------------------------------|-0-----------------------|-------------------------------------|

D#|-------------------------|---------------------------------|-------------------------|
A#|-------------------------|---------------------------------|-------------------------|
F#|-------------------7-----|---------------------------------|-------------------7-----|
C#|-------------5-----------|-----------5----7----7-----5-----|-------------5-----------|
G#|-------7-----------------|-5----7--------------------------|-------7-----------------|
D#|-0-----------------------|---------------------------------|-0-----------------------|

D#|-------------------------------------|-------------------------|---------------------------------|
A#|-------------------------------------|-------------------------|---------------------------------|
F#|-------------------------------------|-------------------7-----|---------------------------------|
C#|-----------5----7----7-----5----7----|-------------5-----------|-----------5----7----7-----5-----|
G#|-5----7------------------------------|-------7-----------------|-5----7--------------------------|
D#|-------------------------------------|-0-----------------------|---------------------------------|

D#|-------------------------|---------------------------------|-------------------------|
A#|-------------------------|---------------------------------|-------------------------|
F#|-------------------7-----|---------------------------------|-------------------7-----|
C#|-------------5-----------|-----------5----7----7-----7-----|-7-----------5-----------|
G#|-------7-----------------|-5----7--------------------------|-------7-----------------|
D#|-0-----------------------|---------------------------------|-------------------------|

D#|---------------------------------|-------------------------|-------------------------------------|
A#|---------------------------------|-------------------------|-------------------------------------|
F#|---------------------------------|-------------------7-----|-------------------------------------|
C#|-----------5----7----7-----5-----|-------------5-----------|-----------5----7----7-----5----7----|
G#|-5----7--------------------------|-------7-----------------|-5----7------------------------------|
D#|---------------------------------|-0-----------------------|-------------------------------------|

D#|-------------------------|---------------------------------|-------------------------|
A#|-------------------------|---------------------------------|-------------------------|
F#|-------------------7-----|---------------------------------|-------------------7-----|
C#|-------------5-----------|-----------5----7----7-----5-----|-------------5-----------|
G#|-------7-----------------|-5----7--------------------------|-------7-----------------|
D#|-0-----------------------|---------------------------------|-0-----------------------|

D#|--------------------|---------|---------------------------------|---------|---------------------------------|
A#|--------------------|---------|---------------------------------|---------|---------------------------------|
F#|-------%-----%------|---------|---------------------------------|---------|---------------------------------|
C#|-------%-----%------|---------|-----------5----7----7-----5-----|-5-------|-----------5----7----7-----5-----|
G#|-2------------------|-2-------|-5----7--------------------------|-5-------|-5----7--------------------------|
D#|-0------------------|-0-------|---------------------------------|-3-------|---------------------------------|

D#|---------|---------------------------------|---------|--------------------|---------|
A#|---------|---------------------------------|---------|--------------------|---------|
F#|-7-------|---------------------------------|-5-------|-4------------------|---------|
C#|-7-------|-----------5----7----7-----5-----|-5-------|-4------------------|---------|
G#|-5-------|-5----7--------------------------|-3-------|-2------0-----------|-2-------|
D#|---------|---------------------------------|---------|--------------3-----|-0-------|

D#|---------------------------------|---------|---------------------------------|---------|
A#|---------------------------------|---------|---------------------------------|---------|
F#|---------------------------------|---------|---------------------------------|-7-------|
C#|-----------5----7----7-----5-----|-5-------|-----------5----7----7-----5-----|-7-------|
G#|-5----7--------------------------|-5-------|-5----7--------------------------|-5-------|
D#|---------------------------------|-3-------|---------------------------------|---------|

D#|---------------------------------|---------|-----------------------------------------|
A#|---------------------------------|---------|-----------------------------------------|
F#|---------------------------------|-5-------|-----------------------------------------|
C#|-----------5----7----7-----5-----|-5-------|-----------------------------------------|
G#|-5----7--------------------------|-3-------|-5----7---------5------------------------|
D#|---------------------------------|---------|-----------8---------7----8----5----7----|

D#|-------------------------|-------------------------------------|-------------------------|
A#|-------------------------|-------------------------------------|-------------------------|
F#|-------------------7-----|-------------------------------------|-------------------7-----|
C#|-------------5-----------|-----------5----7----7-----5---------|-------------5-----------|
G#|-------7-----------------|-5----7-------------------------5----|-------7-----------------|
D#|-0-----------------------|-------------------------------------|-0-----------------------|

D#|-----------------------------------------|-------------------------|-------------------------------------|
A#|-----------------------------------------|-------------------------|-------------------------------------|
F#|-----------------------------------------|-------------------7-----|-------------------------------------|
C#|-----------------------------------------|-------------5-----------|-----------5----7----7-----5---------|
G#|-5----7---------5------------------------|-------7-----------------|-5----7-------------------------5----|
D#|-----------8---------7----8----5----7----|-0-----------------------|-------------------------------------|

D#|-------------------------|-----------------------------------------|-------------------------|
A#|-------------------------|-----------------------------------------|-------------------------|
F#|-------------------7-----|-----------------------------------------|-------------------7-----|
C#|-------------5-----------|-----------------------------------------|-------------5-----------|
G#|-------7-----------------|-5----7---------5------------------------|-------7-----------------|
D#|-0-----------------------|-----------8---------7----8----5----7----|-0-----------------------|

D#|-------------------------------------|-------------------------|-----------------------------------------|
A#|-------------------------------------|-------------------------|-----------------------------------------|
F#|-------------------------------------|-------------------7-----|-----------------------------------------|
C#|-----------5----7----7-----5---------|-------------5-----------|-----------------------------------------|
G#|-5----7-------------------------5----|-------7-----------------|-5----7---------5------------------------|
D#|-------------------------------------|-0-----------------------|-----------8---------7----8----5----7----|

D#|-------------------------|-------------------------------------|-------------------------|
A#|-------------------------|-------------------------------------|-------------------------|
F#|-------------------7-----|-------------------------------------|-------------------7-----|
C#|-------------5-----------|-----------5----7----7-----5---------|-------------5-----------|
G#|-------7-----------------|-5----7-------------------------5----|-------7-----------------|
D#|-0-----------------------|-------------------------------------|-0-----------------------|

D#|-----------------------------------------|-----------------------------------------|
A#|-----------------------------------------|-----------------------------------------|
F#|-----------------------------------------|-----------------------------------------|
C#|-----------------------------------------|-----------------------------------------|
G#|-5----7---------5------------------------|-5----7---------5------------------------|
D#|-----------8---------7----8----5----7----|-----------8---------7----8----5----7----|

D#|-----------------------------|-----------------------------|--------------------|
A#|-----------------------------|-----------------------------|--------------------|
F#|-----------------------------|-----------------------------|-------------%------|
C#|-----------------------------|-----------------------------|-------------%------|
G#|-------------7----5----7-----|-7---------------------8-----|-2----2-------------|
D#|-0-----0---------------------|-------6----5----6-----------|-0----0-------------|
Metallica - Fixxxer
Metallica - Fixxxer.gp3