Metallica - For Whom The Bell Tolls (8)

Metallica - For Whom The Bell Tolls (8)

Metallica



Title: For Whom the Bell Tolls
Album: 
Artist: 
Author: Metallica

Track 1: Guitar 1
E|---------|---------|---------|----------------------------------------------|---------|
B|---------|---------|---------|----------------------------------------------|---------|
G|-%-------|-%-------|-%-------|-%------------------%---%--------------%---%--|---------|
D|-%-------|-%-------|-%-------|-%------4---4--4----%---%--4---4--4----%---%--|-2-------|
A|---------|---------|---------|--------4---4--4-----------4---4--4-----------|-2-------|
E|---------|---------|---------|--------2---2--2-----------2---2--2-----------|-0-------|

E|----------------------------------------------|---------|----------------------------------------------|
B|----------------------------------------------|---------|----------------------------------------------|
G|--------------------%---%--------------%---%--|---------|--------------------%---%--------------%---%--|
D|-2------4---4--4----%---%--4---4--4----%---%--|-2-------|-2------4---4--4----%---%--4---4--4----%---%--|
A|-2------4---4--4-----------4---4--4-----------|-2-------|-2------4---4--4-----------4---4--4-----------|
E|-0------2---2--2-----------2---2--2-----------|-0-------|-0------2---2--2-----------2---2--2-----------|

E|---------|----------------------------------------------|---------|----------------------------------------------|
B|---------|----------------------------------------------|---------|----------------------------------------------|
G|---------|--------------------%---%--------------%---%--|---------|--------------------%---%--------------%---%--|
D|-2-------|-2------4---4--4----%---%--4---4--4----%---%--|-2-------|-2------4---4--4----%---%--4---4--4----%---%--|
A|-2-------|-2------4---4--4-----------4---4--4-----------|-2-------|-2------4---4--4-----------4---4--4-----------|
E|-0-------|-0------2---2--2-----------2---2--2-----------|-0-------|-0------2---2--2-----------2---2--2-----------|

E|---------|----------------------------------------------|---------|----------------------------------------------|
B|---------|----------------------------------------------|---------|----------------------------------------------|
G|---------|--------------------%---%--------------%---%--|---------|--------------------%---%--------------%---%--|
D|-2-------|-2------4---4--4----%---%--4---4--4----%---%--|-2-------|-2------4---4--4----%---%--4---4--4----%---%--|
A|-2-------|-2------4---4--4-----------4---4--4-----------|-2-------|-2------4---4--4-----------4---4--4-----------|
E|-0-------|-0------2---2--2-----------2---2--2-----------|-0-------|-0------2---2--2-----------2---2--2-----------|

E|---------|----------------------------------------------|---------|----------------------------------------------|
B|---------|----------------------------------------------|---------|----------------------------------------------|
G|---------|--------------------%---%--------------%---%--|---------|--------------------%---%--------------%---%--|
D|-2-------|-2------4---4--4----%---%--4---4--4----%---%--|-2-------|-2------4---4--4----%---%--4---4--4----%---%--|
A|-2-------|-2------4---4--4-----------4---4--4-----------|-2-------|-2------4---4--4-----------4---4--4-----------|
E|-0-------|-0------2---2--2-----------2---2--2-----------|-0-------|-0------2---2--2-----------2---2--2-----------|

E|---------|----------------------------------------------|---------|----------------------------------------------|
B|---------|----------------------------------------------|---------|----------------------------------------------|
G|---------|--------------------%---%--------------%---%--|---------|--------------------%---%--------------%---%--|
D|-2-------|-2------4---4--4----%---%--4---4--4----%---%--|-2-------|-2------4---4--4----%---%--4---4--4----%---%--|
A|-2-------|-2------4---4--4-----------4---4--4-----------|-2-------|-2------4---4--4-----------4---4--4-----------|
E|-0-------|-0------2---2--2-----------2---2--2-----------|-0-------|-0------2---2--2-----------2---2--2-----------|

E|---------|----------------------------------------------|---------|----------------------------------------------|
B|---------|----------------------------------------------|---------|----------------------------------------------|
G|---------|--------------------%---%--------------%---%--|---------|--------------------%---%--------------%---%--|
D|-2-------|-2------4---4--4----%---%--4---4--4----%---%--|-2-------|-2------4---4--4----%---%--4---4--4----%---%--|
A|-2-------|-2------4---4--4-----------4---4--4-----------|-2-------|-2------4---4--4-----------4---4--4-----------|
E|-0-------|-0------2---2--2-----------2---2--2-----------|-0-------|-0------2---2--2-----------2---2--2-----------|

E|-----------------------------------------|-----------------------------------------|
B|-----------------------------------------|-----------------------------------------|
G|-----------------------------------------|------------------------------------4----|
D|-2----5----4----3----2----5----4----3----|-2----5----4----3----2----5----2----4----|
A|-2----5----4----3----2----5----4----3----|-2----5----4----3----2----5----2----2----|
E|-0----3----2----1----0----3----2----1----|-0----3----2----1----0----3----0---------|

E|-----------------------------------------|-----------------------------------------|
B|-----------------------------------------|-----------------------------------------|
G|-----------------------------------------|------------------------------------4----|
D|-2----5----4----3----2----5----4----3----|-2----5----4----3----2----5----2----4----|
A|-2----5----4----3----2----5----4----3----|-2----5----4----3----2----5----2----2----|
E|-0----3----2----1----0----3----2----1----|-0----3----2----1----0----3----0---------|

E|-----------------------------------------|-----------------------------------------|
B|-----------------------------------------|-----------------------------------------|
G|-----------------------------------------|------------------------------------4----|
D|-2----5----4----3----2----5----4----3----|-2----5----4----3----2----5----2----4----|
A|-2----5----4----3----2----5----4----3----|-2----5----4----3----2----5----2----2----|
E|-0----3----2----1----0----3----2----1----|-0----3----2----1----0----3----0---------|

E|-----------------------------------------|-----------------------------------------|
B|-----------------------------------------|-----------------------------------------|
G|-----------------------------------------|------------------------------------4----|
D|-2----5----4----3----2----5----4----3----|-2----5----4----3----2----5----2----4----|
A|-2----5----4----3----2----5----4----3----|-2----5----4----3----2----5----2----2----|
E|-0----3----2----1----0----3----2----1----|-0----3----2----1----0----3----0---------|

E|---------|---------|---------|---------|---------|------------------------|---------|
B|---------|---------|---------|---------|---------|------------------------|---------|
G|---------|---------|---------|---------|---------|------%------%-----%----|---------|
D|-2-------|-2-------|-2-------|-2-------|-5-------|-5----%------%-----%----|-2-------|
A|-2-------|-2-------|-2-------|-2-------|-5-------|-5----------------------|-2-------|
E|-0-------|-0-------|-0-------|-0-------|-3-------|-3----------------------|-0-------|

E|---------|---------|---------------|---------|---------|---------|------------------------|
B|---------|---------|---------------|---------|---------|---------|------------------------|
G|---------|---------|-5------2------|---------|---------|---------|------%------%-----%----|
D|-2-------|-5-------|-5------2------|-2-------|-2-------|-5-------|-5----%------%-----%----|
A|-2-------|-5-------|-3------0------|-2-------|-2-------|-5-------|-5----------------------|
E|-0-------|-3-------|---------------|-0-------|-0-------|-3-------|-3----------------------|

E|---------|---------|---------|---------------|-------------------------------------------|
B|---------|---------|---------|---------------|-------------------------------------------|
G|---------|---------|---------|-5------2------|-------------------------------------2-----|
D|-2-------|-2-------|-5-------|-5------2------|----------------5--------------------2-----|
A|-2-------|-2-------|-5-------|-3------0------|----------------5--------------------0-----|
E|-0-------|-0-------|-3-------|---------------|-0----0----0----3-----0----0----0----------|

E|----------------------------------|-------------------------------------------|---------------------------------------------------------|
B|----------------------------------|-------------------------------------------|---------------------------------------------------------|
G|----------------------3-----------|-------------------------------------2-----|-------------------------------3----3--------------------|
D|----------------5-----3-----4-----|----------------5--------------------2-----|----------------5--------------3----3---4----4--3----3---|
A|----------------5-----1-----4-----|----------------5--------------------0-----|----------------5--------------1----1---4----4--3----3---|
E|-0----0----0----3-----------2-----|-0----0----0----3-----0----0----0----------|-0----0----0----3----0----0-------------2----2--1----1---|

E|-------------------------------------------|----------------------------------|-------------------------------------------|
B|-------------------------------------------|----------------------------------|-------------------------------------------|
G|-------------------------------------2-----|----------------------3-----------|-------------------------------------2-----|
D|----------------5--------------------2-----|----------------5-----3-----4-----|----------------5--------------------2-----|
A|----------------5--------------------0-----|----------------5-----1-----4-----|----------------5--------------------0-----|
E|-0----0----0----3-----0----0----0----------|-0----0----0----3-----------2-----|-0----0----0----3-----0----0----0----------|

E|---------------------------------------------------------|---------|---------|---------|
B|---------------------------------------------------------|---------|---------|---------|
G|-------------------------------3----3--------------------|---------|---------|---------|
D|----------------5--------------3----3---4----4--3----3---|-2-------|-2-------|-5-------|
A|----------------5--------------1----1---4----4--3----3---|-2-------|-2-------|-5-------|
E|-0----0----0----3----0----0-------------2----2--1----1---|-0-------|-0-------|-3-------|

E|------------------------|---------|---------|---------|---------------|---------|
B|------------------------|---------|---------|---------|---------------|---------|
G|------%------%-----%----|---------|---------|---------|-5------2------|---------|
D|-5----%------%-----%----|-2-------|-2-------|-5-------|-5------2------|-2-------|
A|-5----------------------|-2-------|-2-------|-5-------|-3------0------|-2-------|
E|-3----------------------|-0-------|-0-------|-3-------|---------------|-0-------|

E|---------|---------|------------------------|---------|---------|---------|---------------|
B|---------|---------|------------------------|---------|---------|---------|---------------|
G|---------|---------|------%------%-----%----|---------|---------|---------|-5------2------|
D|-2-------|-5-------|-5----%------%-----%----|-2-------|-2-------|-5-------|-5------2------|
A|-2-------|-5-------|-5----------------------|-2-------|-2-------|-5-------|-3------0------|
E|-0-------|-3-------|-3----------------------|-0-------|-0-------|-3-------|---------------|

E|-------------------------------------------|----------------------------------|-------------------------------------------|
B|-------------------------------------------|----------------------------------|-------------------------------------------|
G|-------------------------------------2-----|----------------------3-----------|-------------------------------------2-----|
D|----------------5--------------------2-----|----------------5-----3-----4-----|----------------5--------------------2-----|
A|----------------5--------------------0-----|----------------5-----1-----4-----|----------------5--------------------0-----|
E|-0----0----0----3-----0----0----0----------|-0----0----0----3-----------2-----|-0----0----0----3-----0----0----0----------|

E|---------------------------------------------------------|-------------------------------------------|
B|---------------------------------------------------------|-------------------------------------------|
G|-------------------------------3----3--------------------|-------------------------------------2-----|
D|----------------5--------------3----3---4----4--3----3---|----------------5--------------------2-----|
A|----------------5--------------1----1---4----4--3----3---|----------------5--------------------0-----|
E|-0----0----0----3----0----0-------------2----2--1----1---|-0----0----0----3-----0----0----0----------|

E|----------------------------------|-------------------------------------------|---------------------------------------------------------|
B|----------------------------------|-------------------------------------------|---------------------------------------------------------|
G|----------------------3-----------|-------------------------------------2-----|-------------------------------3----3--------------------|
D|----------------5-----3-----4-----|----------------5--------------------2-----|----------------5--------------3----3---4----4--3----3---|
A|----------------5-----1-----4-----|----------------5--------------------0-----|----------------5--------------1----1---4----4--3----3---|
E|-0----0----0----3-----------2-----|-0----0----0----3-----0----0----0----------|-0----0----0----3----0----0-------------2----2--1----1---|

E|---------|---------|---------|---------------------------------------------------|
B|---------|---------|---------|---------------------------------------------------|
G|---------|---------|---------|------%------------------------%-------------------|
D|-2-------|-2-------|-2-------|-5----%----5----5----5----5----%----5----5----5----|
A|-2-------|-2-------|-2-------|-5---------5----5----5----5---------5----5----5----|
E|-0-------|-0-------|-0-------|-3---------3----3----3----3---------3----3----3----|

E|---------|---------|---------|---------|---------|---------------------------------------------------|
B|---------|---------|---------|---------|---------|---------------------------------------------------|
G|---------|---------|---------|---------|---------|------%------------------------%-------------------|
D|-2-------|-9-------|-2-------|-2-------|-2-------|-5----%----5----5----5----5----%----5----5----5----|
A|-2-------|-9-------|-2-------|-2-------|-2-------|-5---------5----5----5----5---------5----5----5----|
E|-0-------|-7-------|-0-------|-0-------|-0-------|-3---------3----3----3----3---------3----3----3----|

E|---------|---------|---------|---------|---------|------------------------|---------|
B|---------|---------|---------|---------|---------|------------------------|---------|
G|---------|-4-------|---------|---------|---------|------%----%------%-----|---------|
D|-2-------|-4-------|-2-------|-2-------|-5-------|-5----%----%------%-----|-2-------|
A|-2-------|-2-------|-2-------|-2-------|-5-------|-5----------------------|-2-------|
E|-0-------|---------|-0-------|-0-------|-3-------|-3----------------------|-0-------|

E|---------|---------|---------------|---------|---------|---------|------------------------|
B|---------|---------|---------------|---------|---------|---------|------------------------|
G|---------|---------|-5------2------|---------|---------|---------|------%------%-----%----|
D|-2-------|-5-------|-5------2------|-2-------|-2-------|-5-------|-5----%------%-----%----|
A|-2-------|-5-------|-3------0------|-2-------|-2-------|-5-------|-5----------------------|
E|-0-------|-3-------|---------------|-0-------|-0-------|-3-------|-3----------------------|

E|---------|---------|---------|---------------|-------------------------------------------|
B|---------|---------|---------|---------------|-------------------------------------------|
G|---------|---------|---------|-5------2------|-------------------------------------2-----|
D|-2-------|-2-------|-5-------|-5------2------|----------------5--------------------2-----|
A|-2-------|-2-------|-5-------|-3------0------|----------------5--------------------0-----|
E|-0-------|-0-------|-3-------|---------------|-0----0----0----3-----0----0----0----------|

E|----------------------------------|-------------------------------------------|---------------------------------------------------------|
B|----------------------------------|-------------------------------------------|---------------------------------------------------------|
G|----------------------3-----------|-------------------------------------2-----|-------------------------------3----3--------------------|
D|----------------5-----3-----4-----|----------------5--------------------2-----|----------------5--------------3----3---4----4--3----3---|
A|----------------5-----1-----4-----|----------------5--------------------0-----|----------------5--------------1----1---4----4--3----3---|
E|-0----0----0----3-----------2-----|-0----0----0----3-----0----0----0----------|-0----0----0----3----0----0-------------2----2--1----1---|

E|-------------------------------------------|----------------------------------|-------------------------------------------|
B|-------------------------------------------|----------------------------------|-------------------------------------------|
G|-------------------------------------2-----|----------------------3-----------|-------------------------------------2-----|
D|----------------5--------------------2-----|----------------5-----3-----4-----|----------------5--------------------2-----|
A|----------------5--------------------0-----|----------------5-----1-----4-----|----------------5--------------------0-----|
E|-0----0----0----3-----0----0----0----------|-0----0----0----3-----------2-----|-0----0----0----3-----0----0----0----------|

E|---------------------------------------------------------|------------------------------|
B|---------------------------------------------------------|------------------------------|
G|-------------------------------3----3--------------------|------------------------------|
D|----------------5--------------3----3---4----4--3----3---|-2------4----4---4-----4---4--|
A|----------------5--------------1----1---4----4--3----3---|-2------4----4---4-----4---4--|
E|-0----0----0----3----0----0-------------2----2--1----1---|-0------2----2---2-----2---2--|

E|------------------------------|-----------------------|------------------------------|
B|------------------------------|-----------------------|------------------------------|
G|------------------------------|-----------------------|------------------------------|
D|-2------4----4---4-----4---4--|-5----5---5-----5---5--|-2------4----4---4-----4---4--|
A|-2------4----4---4-----4---4--|-5----5---5-----5---5--|-2------4----4---4-----4---4--|
E|-0------2----2---2-----2---2--|-3----3---3-----3---3--|-0------2----2---2-----2---2--|

E|------------------------------|-----------------------|------------------------------|
B|------------------------------|-----------------------|------------------------------|
G|------------------------------|-----------------------|------------------------------|
D|-2------4----4---4-----4---4--|-5----5---5-----5---5--|-2------4----4---4-----4---4--|
A|-2------4----4---4-----4---4--|-5----5---5-----5---5--|-2------4----4---4-----4---4--|
E|-0------2----2---2-----2---2--|-3----3---3-----3---3--|-0------2----2---2-----2---2--|

E|------------------------------|-----------------------|------------------------------|
B|------------------------------|-----------------------|------------------------------|
G|------------------------------|-----------------------|------------------------------|
D|-2------4----4---4-----4---4--|-5----5---5-----5---5--|-2------4----4---4-----4---4--|
A|-2------4----4---4-----4---4--|-5----5---5-----5---5--|-2------4----4---4-----4---4--|
E|-0------2----2---2-----2---2--|-3----3---3-----3---3--|-0------2----2---2-----2---2--|

E|------------------------------|-----------------------|------------------------------|
B|------------------------------|-----------------------|------------------------------|
G|------------------------------|-----------------------|------------------------------|
D|-2------4----4---4-----4---4--|-5----5---5-----5---5--|-2------4----4---4-----4---4--|
A|-2------4----4---4-----4---4--|-5----5---5-----5---5--|-2------4----4---4-----4---4--|
E|-0------2----2---2-----2---2--|-3----3---3-----3---3--|-0------2----2---2-----2---2--|

E|------------------------------|-----------------------|------------------------------|
B|------------------------------|-----------------------|------------------------------|
G|------------------------------|-----------------------|------------------------------|
D|-2------4----4---4-----4---4--|-5----5---5-----5---5--|-2------4----4---4-----4---4--|
A|-2------4----4---4-----4---4--|-5----5---5-----5---5--|-2------4----4---4-----4---4--|
E|-0------2----2---2-----2---2--|-3----3---3-----3---3--|-0------2----2---2-----2---2--|

E|------------------------------|-----------------------|------------------------------|
B|------------------------------|-----------------------|------------------------------|
G|------------------------------|-----------------------|------------------------------|
D|-2------4----4---4-----4---4--|-5----5---5-----5---5--|-2------4----4---4-----4---4--|
A|-2------4----4---4-----4---4--|-5----5---5-----5---5--|-2------4----4---4-----4---4--|
E|-0------2----2---2-----2---2--|-3----3---3-----3---3--|-0------2----2---2-----2---2--|

E|------------------------------|-----------------------|------------------------------|
B|------------------------------|-----------------------|------------------------------|
G|------------------------------|-----------------------|------------------------------|
D|-2------4----4---4-----4---4--|-5----5---5-----5---5--|-2------4----4---4-----4---4--|
A|-2------4----4---4-----4---4--|-5----5---5-----5---5--|-2------4----4---4-----4---4--|
E|-0------2----2---2-----2---2--|-3----3---3-----3---3--|-0------2----2---2-----2---2--|

E|------------------------------|-----------------------|------------------------------|
B|------------------------------|-----------------------|------------------------------|
G|------------------------------|-----------------------|------------------------------|
D|-2------4----4---4-----4---4--|-5----5---5-----5---5--|-2------4----4---4-----4---4--|
A|-2------4----4---4-----4---4--|-5----5---5-----5---5--|-2------4----4---4-----4---4--|
E|-0------2----2---2-----2---2--|-3----3---3-----3---3--|-0------2----2---2-----2---2--|

E|------------------------------|-----------------------|------------------------------|
B|------------------------------|-----------------------|------------------------------|
G|------------------------------|-----------------------|------------------------------|
D|-2------4----4---4-----4---4--|-5----5---5-----5---5--|-2------4----4---4-----4---4--|
A|-2------4----4---4-----4---4--|-5----5---5-----5---5--|-2------4----4---4-----4---4--|
E|-0------2----2---2-----2---2--|-3----3---3-----3---3--|-0------2----2---2-----2---2--|

E|------------------------------|-----------------------|------------------------------|
B|------------------------------|-----------------------|------------------------------|
G|------------------------------|-----------------------|------------------------------|
D|-2------4----4---4-----4---4--|-5----5---5-----5---5--|-2------4----4---4-----4---4--|
A|-2------4----4---4-----4---4--|-5----5---5-----5---5--|-2------4----4---4-----4---4--|
E|-0------2----2---2-----2---2--|-3----3---3-----3---3--|-0------2----2---2-----2---2--|

E|------------------------------|-----------------------|------------------------------|
B|------------------------------|-----------------------|------------------------------|
G|------------------------------|-----------------------|------------------------------|
D|-2------4----4---4-----4---4--|-5----5---5-----5---5--|-2------4----4---4-----4---4--|
A|-2------4----4---4-----4---4--|-5----5---5-----5---5--|-2------4----4---4-----4---4--|
E|-0------2----2---2-----2---2--|-3----3---3-----3---3--|-0------2----2---2-----2---2--|

E|------------------------------|-----------------------|------------------------------|
B|------------------------------|-----------------------|------------------------------|
G|------------------------------|-----------------------|------------------------------|
D|-2------4----4---4-----4---4--|-5----5---5-----5---5--|-2------4----4---4-----4---4--|
A|-2------4----4---4-----4---4--|-5----5---5-----5---5--|-2------4----4---4-----4---4--|
E|-0------2----2---2-----2---2--|-3----3---3-----3---3--|-0------2----2---2-----2---2--|

E|------------------------------|-----------------------|------------------------------|
B|------------------------------|-----------------------|------------------------------|
G|------------------------------|-----------------------|------------------------------|
D|-2------4----4---4-----4---4--|-5----5---5-----5---5--|-2------4----4---4-----4---4--|
A|-2------4----4---4-----4---4--|-5----5---5-----5---5--|-2------4----4---4-----4---4--|
E|-0------2----2---2-----2---2--|-3----3---3-----3---3--|-0------2----2---2-----2---2--|

E|------------------------------|-----------------------|------------------------------|
B|------------------------------|-----------------------|------------------------------|
G|------------------------------|-----------------------|------------------------------|
D|-2------4----4---4-----4---4--|-5----5---5-----5---5--|-2------4----4---4-----4---4--|
A|-2------4----4---4-----4---4--|-5----5---5-----5---5--|-2------4----4---4-----4---4--|
E|-0------2----2---2-----2---2--|-3----3---3-----3---3--|-0------2----2---2-----2---2--|

E|------------------------------|-----------------------|------------------------------|
B|------------------------------|-----------------------|------------------------------|
G|------------------------------|-----------------------|------------------------------|
D|-2------4----4---4-----4---4--|-5----5---5-----5---5--|-2------4----4---4-----4---4--|
A|-2------4----4---4-----4---4--|-5----5---5-----5---5--|-2------4----4---4-----4---4--|
E|-0------2----2---2-----2---2--|-3----3---3-----3---3--|-0------2----2---2-----2---2--|

E|--------|
B|--------|
G|--------|
D|-2------|
A|-2------|
E|-0------|
Metallica - For Whom The Bell Tolls (8)
Metallica - For Whom The Bell Tolls (8).gp3