Metallica - Frantic (2)

Metallica - Frantic (2)

Metallica



Title: Frantic
Album: St. Anger
Artist: Metallica
Author: 

Track 1: L Guitar - Hetfield
D|------------------------|------------------------|------------------------|------------------------|
A|------------------------|------------------------|------------------------|------------------------|
F|-%------%---------%-----|-%------%---------%-----|-%------%---------%-----|-%------%---------%-----|
C|-%------%----0----%-----|-%------%----0----%-----|-%------%----0----%-----|-%------%----0----%-----|
G|-------------0----------|-------------0----------|-------------0----------|-------------0----------|
C|------------------------|------------------------|------------------------|------------------------|

D|------------------------|------------------------|------------------------|------------------------|
A|------------------------|------------------------|------------------------|------------------------|
F|-%------%---------%-----|-%------%---------%-----|-%------%---------%-----|-%------%---------%-----|
C|-%------%----0----%-----|-%------%----0----%-----|-%------%----0----%-----|-%------%----0----%-----|
G|-------------0----------|-------------0----------|-------------0----------|-------------0----------|
C|------------------------|------------------------|------------------------|------------------------|

D|--------------------------------------------------------|--------------------------------------------------------|
A|--------------------------------------------------------|--------------------------------------------------------|
F|--------------------------------------------------------|--------------------------------------------------------|
C|--------------------------------------------------------|--------------------------------------------------------|
G|--------------------------------------------------------|--------------------------------------------------------|
C|-18---15---0---0---0---0---17---0---0---0---0---0---0---|-18---15---0---0---0---0---17---0---0---0---0---0---0---|

D|--------------------------------------------------------|--------------------------------------------------------|
A|--------------------------------------------------------|--------------------------------------------------------|
F|--------------------------------------------------------|--------------------------------------------------------|
C|--------------------------------------------------------|--------------------------------------------------------|
G|--------------------------------------------------------|--------------------------------------------------------|
C|-18---15---0---0---0---0---17---0---0---0---0---0---0---|-18---15---0---0---0---0---17---0---0---0---0---0---0---|

D|--------------------------------------------------------|--------------------------------------------------------|
A|--------------------------------------------------------|--------------------------------------------------------|
F|--------------------------------------------------------|--------------------------------------------------------|
C|--------------------------------------------------------|--------------------------------------------------------|
G|--------------------------------------------------------|--------------------------------------------------------|
C|-18---15---0---0---0---0---17---0---0---0---0---0---0---|-18---15---0---0---0---0---17---0---0---0---0---0---0---|

D|--------------------------------------------------------|--------------------------------------------------------|
A|--------------------------------------------------------|--------------------------------------------------------|
F|--------------------------------------------------------|--------------------------------------------------------|
C|--------------------------------------------------------|--------------------------------------------------------|
G|--------------------------------------------------------|--------------------------------------------------------|
C|-18---15---0---0---0---0---17---0---0---0---0---0---0---|-18---15---0---0---0---0---17---0---0---0---0---0---0---|

D|--------------------------------------------------------|--------------------------------------------------------|
A|--------------------------------------------------------|--------------------------------------------------------|
F|--------------------------------------------------------|--------------------------------------------------------|
C|--------------------------------------------------------|--------------------------------------------------------|
G|--------------------------------------------------------|--------------------------------------------------------|
C|-18---15---0---0---0---0---17---0---0---0---0---0---0---|-18---15---0---0---0---0---17---0---0---0---0---0---0---|

D|--------------------------------------------------------|--------------------------------------------------------|
A|--------------------------------------------------------|--------------------------------------------------------|
F|--------------------------------------------------------|--------------------------------------------------------|
C|--------------------------------------------------------|--------------------------------------------------------|
G|--------------------------------------------------------|--------------------------------------------------------|
C|-18---15---0---0---0---0---17---0---0---0---0---0---0---|-18---15---0---0---0---0---17---0---0---0---0---0---0---|

D|--------------------------------------------------------|--------------------------------------------------------|
A|--------------------------------------------------------|--------------------------------------------------------|
F|--------------------------------------------------------|--------------------------------------------------------|
C|--------------------------------------------------------|--------------------------------------------------------|
G|--------------------------------------------------------|--------------------------------------------------------|
C|-18---15---0---0---0---0---17---0---0---0---0---0---0---|-18---15---0---0---0---0---17---0---0---0---0---0---0---|

D|--------------------------------------------------------|--------------------------------------------------------|
A|--------------------------------------------------------|--------------------------------------------------------|
F|--------------------------------------------------------|--------------------------------------------------------|
C|--------------------------------------------------------|--------------------------------------------------------|
G|--------------------------------------------------------|--------------------------------------------------------|
C|-18---15---0---0---0---0---17---0---0---0---0---0---0---|-18---15---0---0---0---0---17---0---0---0---0---0---0---|

D|---------------------------------|---------------------------------|---------------------------------|
A|---------------------------------|---------------------------------|---------------------------------|
F|---------------------------------|---------------------------------|---------------------------------|
C|---------------------------------|---------------------------------|---------------------------------|
G|---------------------------------|---------------------------------|---------------------------------|
C|-18---15---0----17----17----0----|-18---15---0----17----17----0----|-18---15---0----17----17----0----|

D|-----------------------------------------|---------------------------------|---------------------------------|
A|-----------------------------------------|---------------------------------|---------------------------------|
F|-----------------------------------------|---------------------------------|---------------------------------|
C|-----------------------------------------|---------------------------------|---------------------------------|
G|-----------------------------------------|---------------------------------|---------------------------------|
C|-18---15---0----0----0----0----0----0----|-18---15---0----17----17----0----|-18---15---0----17----17----0----|

D|---------------------------------|-----------------------------------------|---------------------------------|
A|---------------------------------|-----------------------------------------|---------------------------------|
F|---------------------------------|-----------------------------------------|---------------------------------|
C|---------------------------------|-----------------------------------------|---------------------------------|
G|---------------------------------|-----------------------------------------|---------------------------------|
C|-18---15---0----17----17----0----|-18---15---0----0----0----0----0----0----|-18---15---0----17----17----0----|

D|---------------------------------|---------------------------------|-----------------------------------------|
A|---------------------------------|---------------------------------|-----------------------------------------|
F|---------------------------------|---------------------------------|-----------------------------------------|
C|---------------------------------|---------------------------------|-----------------------------------------|
G|---------------------------------|---------------------------------|-----------------------------------------|
C|-18---15---0----17----17----0----|-18---15---0----17----17----0----|-18---15---0----0----0----0----0----0----|

D|---------------------------------|---------------------------------|---------------------------------|
A|---------------------------------|---------------------------------|---------------------------------|
F|---------------------------------|---------------------------------|---------------------------------|
C|---------------------------------|---------------------------------|---------------------------------|
G|---------------------------------|---------------------------------|---------------------------------|
C|-18---15---0----17----17----0----|-18---15---0----17----17----0----|-18---15---0----17----17----0----|

D|-----------------------------------------|-----------------------------------------|
A|-----------------------------------------|-----------------------------------------|
F|-----------------------------------------|-----------------------------------------|
C|-----------------------------------------|-----------------------------------------|
G|-----------------------------------------|-6----3----------------------------------|
C|-18---15---0----0----0----0----0----0----|-6----3----0----0----0----0----0----0----|

D|-----------------------------------------|-----------------------------------------|
A|-----------------------------------------|-----------------------------------------|
F|-----------------------------------------|-----------------------------------------|
C|-----------------------------------------|-----------------------------------------|
G|-6----3----------------------------------|-6----3----------------------------------|
C|-6----3----0----0----0----0----0----0----|-6----3----0----0----0----0----0----0----|

D|-----------------------------------------|-----------------------------------------|
A|-----------------------------------------|-----------------------------------------|
F|-----------------------------------------|-----------------------------------------|
C|-----------------------------------------|-----------------------------------------|
G|-6----3----------------------------------|-6----3----------------------------------|
C|-6----3----0----0----0----0----0----0----|-6----3----0----0----0----0----0----0----|

D|-----------------------------------------|-----------------------------------------|
A|-----------------------------------------|-----------------------------------------|
F|-----------------------------------------|-----------------------------------------|
C|-----------------------------------------|-----------------------------------------|
G|-6----3----------------------------------|-6----3----------------------------------|
C|-6----3----0----0----0----0----0----0----|-6----3----0----0----0----0----0----0----|

D|-----------------------------------------|-----------------------------------------|
A|-----------------------------------------|-----------------------------------------|
F|-----------------------------------------|-----------------------------------------|
C|-----------------------------------------|-----------------------------------------|
G|-6----3----------------------------------|-3-------------------2-------------------|
C|-6----3----0----0----0----0----0----0----|-3----3----3----3----2----2----2----2----|

D|-----------------------------------------|-----------------------------------------|
A|-----------------------------------------|-----------------------------------------|
F|-----------------------------------------|-----------------------------------------|
C|-----------------------------------------|-----------------------------------------|
G|-3-------------------2-------------------|-3-------------------2-------------------|
C|-3----3----3----3----2----2----2----2----|-3----3----3----3----2----2----2----2----|

D|---------------------------------|-----------------------------------------|-----------------------------------------|
A|---------------------------------|-----------------------------------------|-----------------------------------------|
F|---------------------------------|-----------------------------------------|-----------------------------------------|
C|---------------------------------|-----------------------------------------|-----------------------------------------|
G|-3-------------------2-----0-----|-6----3----------------------------------|-6----3----------------------------------|
C|-3----3----3----3----2-----0-----|-6----3----0----0----0----0----0----0----|-6----3----0----0----0----0----0----0----|

D|-----------------------------------------|-----------------------------------------|
A|-----------------------------------------|-----------------------------------------|
F|-----------------------------------------|-----------------------------------------|
C|-----------------------------------------|-----------------------------------------|
G|-6----3----------------------------------|-6----3----------------------------------|
C|-6----3----0----0----0----0----0----0----|-6----3----0----0----0----0----0----0----|

D|---------------------------------|---------------------------------|---------------------------------|
A|---------------------------------|---------------------------------|---------------------------------|
F|---------------------------------|---------------------------------|---------------------------------|
C|---------------------------------|---------------------------------|---------------------------------|
G|---------------------------------|---------------------------------|---------------------------------|
C|-18---15---0----17----17----0----|-18---15---0----17----17----0----|-18---15---0----17----17----0----|

D|---------------------------------|---------------------------------|---------------------------------|
A|---------------------------------|---------------------------------|---------------------------------|
F|---------------------------------|---------------------------------|---------------------------------|
C|---------------------------------|---------------------------------|---------------------------------|
G|---------------------------------|---------------------------------|---------------------------------|
C|-18---15---0----17----17----0----|-18---15---0----17----17----0----|-18---15---0----17----17----0----|

D|---------------------------------------------|---------------------------------------------|
A|---------------------------------------------|---------------------------------------------|
F|--------------------------------------%------|--------------------------------------%------|
C|--------------------------------------%------|--------------------------------------%------|
G|---------------------------------0-----------|---------------------------------0-----------|
C|-0---0---0---0---0---0---0---0---0-----------|-0---0---0---0---0---0---0---0---0-----------|

D|---------------------------------------------|---------------------------------------------|
A|---------------------------------------------|---------------------------------------------|
F|--------------------------------------%------|--------------------------------------%------|
C|--------------------------------------%------|--------------------------------------%------|
G|---------------------------------0-----------|---------------------------------0-----------|
C|-0---0---0---0---0---0---0---0---0-----------|-0---0---0---0---0---0---0---0---0-----------|

D|-4------1------3-----|-3-------|-4------1------3-----|-3-------|-1-------------------|
A|---------------------|---------|---------------------|---------|--------4------3-----|
F|---------------------|---------|---------------------|---------|---------------------|
C|---------------------|---------|---------------------|---------|---------------------|
G|---------------------|---------|---------------------|---------|---------------------|
C|---------------------|---------|---------------------|---------|---------------------|

D|-1-------|-1-------------------|-1-------|-4------1------3-----|-3-------|-4------1------3-----|
A|---------|--------4------3-----|---------|---------------------|---------|---------------------|
F|-3-------|---------------------|-3-------|---------------------|---------|---------------------|
C|---------|---------------------|---------|---------------------|---------|---------------------|
G|---------|---------------------|---------|---------------------|---------|---------------------|
C|---------|---------------------|---------|---------------------|---------|---------------------|

D|-3-------|-1-------------------|-1-------|-1-------------------|-1-------|--------------------------------------------------------|
A|---------|--------4------3-----|---------|--------4------3-----|---------|--------------------------------------------------------|
F|---------|---------------------|-3-------|---------------------|-3-------|--------------------------------------------------------|
C|---------|---------------------|---------|---------------------|---------|-6----3----0---0---0---0---5----0---0---0---0---0---0---|
G|---------|---------------------|---------|---------------------|---------|--------------------------------------------------------|
C|---------|---------------------|---------|---------------------|---------|--------------------------------------------------------|

D|--------------------------------------------------------|--------------------------------------------------------|
A|--------------------------------------------------------|--------------------------------------------------------|
F|--------------------------------------------------------|--------------------------------------------------------|
C|-6----3----0---0---0---0---5----0---0---0---0---0---0---|-6----3----0---0---0---0---5----0---0---0---0---0---0---|
G|--------------------------------------------------------|--------------------------------------------------------|
C|--------------------------------------------------------|--------------------------------------------------------|

D|--------------------------------------------------------|--------------------------------------------------------|
A|--------------------------------------------------------|--------------------------------------------------------|
F|--------------------------------------------------------|--------------------------------------------------------|
C|-6----3----0---0---0---0---5----0---0---0---0---0---0---|-6----3----0---0---0---0---5----0---0---0---0---0---0---|
G|--------------------------------------------------------|--------------------------------------------------------|
C|--------------------------------------------------------|--------------------------------------------------------|

D|--------------------------------------------------------|--------------------------------------------------------|
A|--------------------------------------------------------|--------------------------------------------------------|
F|--------------------------------------------------------|--------------------------------------------------------|
C|-6----3----0---0---0---0---5----0---0---0---0---0---0---|-6----3----0---0---0---0---5----0---0---0---0---0---0---|
G|--------------------------------------------------------|--------------------------------------------------------|
C|--------------------------------------------------------|--------------------------------------------------------|

D|--------------------------------------------------------|---------|---------|---------|
A|--------------------------------------------------------|---------|---------|---------|
F|--------------------------------------------------------|-%-------|-%-------|-%-------|
C|-6----3----0---0---0---0---5----0---0---0---0---0---0---|-%-------|-%-------|-%-------|
G|--------------------------------------------------------|---------|---------|---------|
C|--------------------------------------------------------|---------|---------|---------|

D|---------|-------------------------------------|-------------------------------------|
A|---------|-------------------------------------|-------------------------------------|
F|-%-------|-------------------------------------|-------------------------------------|
C|-%-------|-------------------------------------|-------------------------------------|
G|---------|-------------------------------------|-------------------------------------|
C|---------|-0----0---12---12--12--10--12---12---|-0----0---12---12--12--10--12---12---|

D|-------------------------------------|-------------------------------------------|
A|-------------------------------------|-------------------------------------------|
F|-------------------------------------|-------------------------------------------|
C|-------------------------------------|-------------------------------------------|
G|-------------------------------------|-------------------------------10----------|
C|-0----0---12---12--12--10--12---12---|-0----0---12---12--12--10--12------12--10--|

D|-------------------------------------|-------------------------------------|-------------------------------------|
A|-------------------------------------|-------------------------------------|-------------------------------------|
F|-------------------------------------|-------------------------------------|-------------------------------------|
C|-------------------------------------|-------------------------------------|-------------------------------------|
G|-------------------------------------|-------------------------------------|-------------------------------------|
C|-0----0---12---12--12--10--12---12---|-0----0---12---12--12--10--12---12---|-0----0---12---12--12--10--12---12---|

D|-------------------------------------------|
A|-------------------------------------------|
F|-------------------------------------------|
C|-------------------------------------------|
G|-------------------------------10----------|
C|-0----0---12---12--12--10--12------12--10--|
Metallica - Frantic (2)
Metallica - Frantic (2).gp3