Metallica - Frantic (3)

Metallica



Title: 
Album: 
Artist: 
Author: Baybee

Track 1: Guitar1
D|----------------------------------------|----------------------------------------|
A|----------------------------------------|----------------------------------------|
F|---------------------------------%------|---------------------------------%------|
C|---------------------------------%------|---------------------------------%------|
G|----------------------------------------|----------------------------------------|
C|-0---0---0---0---0---0---0---0----------|-0---0---0---0---0---0---0---0----------|

D|----------------------------------------|----------------------------------------|
A|----------------------------------------|----------------------------------------|
F|---------------------------------%------|---------------------------------%------|
C|---------------------------------%------|---------------------------------%------|
G|----------------------------------------|----------------------------------------|
C|-0---0---0---0---0---0---0---0----------|-0---0---0---0---0---0---0---0----------|

D|--------------------------------------------------------|---------------------------------|
A|--------------------------------------------------------|---------------------------------|
F|--------------------------------------------------------|---------------------------------|
C|--------------------------------------------------------|---------------------------------|
G|--------------------------------------------------------|---------------------------------|
C|-18---15---0---0---0---17---0---0---0---0---0---0---0---|-18---15---0----17----17----17---|

D|---------------------------------|---------------------------------|-----------------------------------------|
A|---------------------------------|---------------------------------|-----------------------------------------|
F|---------------------------------|---------------------------------|-----------------------------------------|
C|---------------------------------|---------------------------------|-----------------------------------------|
G|---------------------------------|---------------------------------|-----------------------------------------|
C|-18---15---0----17----17----17---|-18---15---0----17----17----17---|-18---15---0----0----0----0----0----0----|

D|---------------------------------|---------------------------------|---------------------------------|
A|---------------------------------|---------------------------------|---------------------------------|
F|---------------------------------|---------------------------------|---------------------------------|
C|---------------------------------|---------------------------------|---------------------------------|
G|---------------------------------|---------------------------------|---------------------------------|
C|-18---15---0----17----17----17---|-18---15---0----17----17----17---|-18---15---0----17----17----17---|

D|-----------------------------------------|---------------------------------|---------------------------------|
A|-----------------------------------------|---------------------------------|---------------------------------|
F|-----------------------------------------|---------------------------------|---------------------------------|
C|-----------------------------------------|---------------------------------|---------------------------------|
G|-----------------------------------------|---------------------------------|---------------------------------|
C|-18---15---0----0----0----0----0----0----|-18---15---0----17----17----17---|-18---15---0----17----17----17---|

D|---------------------------------|-----------------------------------------|-----------------------------------------|
A|---------------------------------|-----------------------------------------|-----------------------------------------|
F|---------------------------------|-----------------------------------------|-----------------------------------------|
C|---------------------------------|-----------------------------------------|-----------------------------------------|
G|---------------------------------|-----------------------------------------|-----------------------------------------|
C|-18---15---0----17----17----17---|-18---15---0----0----0----0----0----0----|-6----3----0----0----0----0----0----0----|

D|-----------------------------------------|-----------------------------------------|
A|-----------------------------------------|-----------------------------------------|
F|-----------------------------------------|-----------------------------------------|
C|-----------------------------------------|-----------------------------------------|
G|-----------------------------------------|-3----3----3----3----2----2----2----2----|
C|-6----3----0----0----0----0----0----0----|-3----3----3----3----2----2----2----2----|

D|-----------------------------------------|-----------------------------------------|
A|-----------------------------------------|-----------------------------------------|
F|-----------------------------------------|-----------------------------------------|
C|-----------------------------------------|-----------------------------------------|
G|-3----3----3----3----2----2----2----2----|-----------------------------------------|
C|-3----3----3----3----2----2----2----2----|-6----3----0----0----0----0----0----0----|

D|---------------------------------|---------------------------------|---------------------------------|
A|---------------------------------|---------------------------------|---------------------------------|
F|---------------------------------|---------------------------------|---------------------------------|
C|---------------------------------|---------------------------------|---------------------------------|
G|---------------------------------|---------------------------------|---------------------------------|
C|-18---15---0----17----17----17---|-18---15---0----17----17----17---|-18---15---0----17----17----17---|

D|---------------------------------|---------------------------------|---------------------------------|
A|---------------------------------|---------------------------------|---------------------------------|
F|---------------------------------|---------------------------------|---------------------------------|
C|---------------------------------|---------------------------------|---------------------------------|
G|---------------------------------|---------------------------------|---------------------------------|
C|-18---15---0----17----17----17---|-18---15---0----17----17----17---|-18---15---0----17----17----17---|

D|------------------------------------------------|-------------------------|-------------------------|
A|------------------------------------------------|-------------------0-----|-------------------------|
F|-------------------------------------%---%------|-------------0-----------|-0-----0-----------------|
C|-------------------------------------%---%------|-------6-----------------|-------------------6-----|
G|------------------------------------------------|-8-----------------------|-------------8-----------|
C|-0---0---0---0---0---0---0---0---0--------------|-------------------------|-------------------------|

D|-------------------------|-------------------------|-------------------------|-------------------------|
A|-------------------0-----|-------------------------|-------------------0-----|-------------------------|
F|-------------0-----------|-0-----0-----------------|-------------0-----------|-0-----0-----------------|
C|-------6-----------------|-------------------6-----|-------6-----------------|-------------------6-----|
G|-8-----------------------|-------------8-----------|-8-----------------------|-------------8-----------|
C|-------------------------|-------------------------|-------------------------|-------------------------|

D|-------------------------|-------------------------|-------------------------|-------------------------|
A|-------------------0-----|-------------------------|-------------------0-----|-------------------------|
F|-------------0-----------|-0-----0-----------------|-------------0-----------|-0-----0-----------------|
C|-------6-----------------|-------------------6-----|-------6-----------------|-------------------6-----|
G|-8-----------------------|-------------8-----------|-8-----------------------|-------------8-----------|
C|-------------------------|-------------------------|-------------------------|-------------------------|

D|-------------------------|-------------------------|-------------------------|-------------------------|
A|-------------------0-----|-------------------------|-------------------0-----|-------------------------|
F|-------------0-----------|-0-----0-----------------|-------------0-----------|-0-----0-----------------|
C|-------6-----------------|-------------------6-----|-------6-----------------|-------------------6-----|
G|-8-----------------------|-------------8-----------|-8-----------------------|-------------8-----------|
C|-------------------------|-------------------------|-------------------------|-------------------------|

D|-------------------------|-------------------------|-----------------------------------------|
A|-------------------0-----|-------------------------|-----------------------------------------|
F|-------------0-----------|-0-----0-----------------|-----------------------------------------|
C|-------6-----------------|-------------------6-----|-----------------------------------------|
G|-8-----------------------|-------------8-----------|-----------------------------------------|
C|-------------------------|-------------------------|-18---18---15---17---17---0----0----0----|

D|-----------------------------------------|-----------------------------------------|
A|-----------------------------------------|-----------------------------------------|
F|-----------------------------------------|-----------------------------------------|
C|-----------------------------------------|-----------------------------------------|
G|-----------------------------------------|-----------------------------------------|
C|-18---18---15---17---17---0----0----0----|-18---18---15---17---17---0----0----0----|

D|-----------------------------------------|
A|-----------------------------------------|
F|-----------------------------------------|
C|-----------------------------------------|
G|-----------------------------------------|
C|-18---18---15---15---17---12---12---12---|
Metallica - Frantic (3)
Metallica - Frantic (3).gp3