Metallica - Free Speech For the Dumb

Metallica - Free Speech For the Dumb

Metallica



Title: Free Speech For the Dumb
Album: 
Artist: 
Author: Metallica

Track 1: James (Guitar 1)
C#|-------------------------------------|---------------------------------|-------------------------------------|
G#|-------------------------------------|---------------------------------|-------------------------------------|
 E|-------------------------------------|---------------------------------|-------------------------------------|
 B|-------------------------------------|---------------------------------|-------------------------------------|
F#|-2-----------------------------------|--------------------------5------|-2-----------------------------------|
C#|-0-----0----0----0----0----0----0----|-0----0----0----0----0----3------|-0-----0----0----0----0----0----0----|

C#|---------------------------------|-------------------------------------|---------------------------------|
G#|---------------------------------|-------------------------------------|---------------------------------|
 E|---------------------------------|-------------------------------------|---------------------------------|
 B|---------------------------------|-------------------------------------|---------------------------------|
F#|--------------------------5------|-2-----------------------------------|--------------------------5------|
C#|-0----0----0----0----0----3------|-0-----0----0----0----0----0----0----|-0----0----0----0----0----3------|

C#|-------------------------------------|---------------------------------|-------------------------------------|
G#|-------------------------------------|---------------------------------|-------------------------------------|
 E|-------------------------------------|---------------------------------|-------------------------------------|
 B|-------------------------------------|---------------------------------|-------------------------------------|
F#|-2-----------------------------------|--------------------------5------|-2-----------------------------------|
C#|-0-----0----0----0----0----0----0----|-0----0----0----0----0----3------|-0-----0----0----0----0----0----0----|

C#|---------------------------------|-------------------------------------|---------------------------------|
G#|---------------------------------|-------------------------------------|---------------------------------|
 E|---------------------------------|-------------------------------------|---------------------------------|
 B|---------------------------------|-------------------------------------|---------------------------------|
F#|--------------------------5------|-2-----------------------------------|--------------------------5------|
C#|-0----0----0----0----0----3------|-0-----0----0----0----0----0----0----|-0----0----0----0----0----3------|

C#|-------------------------------------|---------------------------------|-------------------------------------|
G#|-------------------------------------|---------------------------------|-------------------------------------|
 E|-------------------------------------|---------------------------------|-------------------------------------|
 B|-------------------------------------|---------------------------------|-------------------------------------|
F#|-2-----------------------------------|--------------------------5------|-2-----------------------------------|
C#|-0-----0----0----0----0----0----0----|-0----0----0----0----0----3------|-0-----0----0----0----0----0----0----|

C#|---------------------------------|-------------------------------------|---------------------------------|
G#|---------------------------------|-------------------------------------|---------------------------------|
 E|---------------------------------|-------------------------------------|---------------------------------|
 B|---------------------------------|-------------------------------------|---------------------------------|
F#|--------------------------5------|-2-----------------------------------|--------------------------5------|
C#|-0----0----0----0----0----3------|-0-----0----0----0----0----0----0----|-0----0----0----0----0----3------|

C#|-------------------------------------|---------------------------------|-------------------------------------|
G#|-------------------------------------|---------------------------------|-------------------------------------|
 E|-------------------------------------|---------------------------------|-------------------------------------|
 B|-------------------------------------|---------------------------------|-------------------------------------|
F#|-2-----------------------------------|--------------------------5------|-2-----------------------------------|
C#|-0-----0----0----0----0----0----0----|-0----0----0----0----0----3------|-0-----0----0----0----0----0----0----|

C#|---------------------------------|-------------------------------------|---------------------------------|
G#|---------------------------------|-------------------------------------|---------------------------------|
 E|---------------------------------|-------------------------------------|---------------------------------|
 B|---------------------------------|-------------------------------------|---------------------------------|
F#|--------------------------5------|-2-----------------------------------|--------------------------5------|
C#|-0----0----0----0----0----3------|-0-----0----0----0----0----0----0----|-0----0----0----0----0----3------|

C#|-------------------------------------|---------------------------------|-------------------------------------|
G#|-------------------------------------|---------------------------------|-------------------------------------|
 E|-------------------------------------|---------------------------------|-------------------------------------|
 B|-------------------------------------|---------------------------------|-------------------------------------|
F#|-2-----------------------------------|--------------------------5------|-2-----------------------------------|
C#|-0-----0----0----0----0----0----0----|-0----0----0----0----0----3------|-0-----0----0----0----0----0----0----|

C#|---------------------------------|-------------------------------------|---------------------------------|
G#|---------------------------------|-------------------------------------|---------------------------------|
 E|---------------------------------|-------------------------------------|---------------------------------|
 B|---------------------------------|-------------------------------------|---------------------------------|
F#|--------------------------5------|-2-----------------------------------|--------------------------5------|
C#|-0----0----0----0----0----3------|-0-----0----0----0----0----0----0----|-0----0----0----0----0----3------|

C#|-------------------------------------|---------------------------------|-------------------------------------|
G#|-------------------------------------|---------------------------------|-------------------------------------|
 E|-------------------------------------|---------------------------------|-------------------------------------|
 B|-------------------------------------|---------------------------------|-------------------------------------|
F#|-2-----------------------------------|--------------------------5------|-2-----------------------------------|
C#|-0-----0----0----0----0----0----0----|-0----0----0----0----0----3------|-0-----0----0----0----0----0----0----|

C#|---------------------------------|-------------------------------------|---------------------------------|
G#|---------------------------------|-------------------------------------|---------------------------------|
 E|---------------------------------|-------------------------------------|---------------------------------|
 B|---------------------------------|-------------------------------------|---------------------------------|
F#|--------------------------5------|-2-----------------------------------|--------------------------5------|
C#|-0----0----0----0----0----3------|-0-----0----0----0----0----0----0----|-0----0----0----0----0----3------|

C#|-------------------------------------|---------------------------------|-------------------------------------|
G#|-------------------------------------|---------------------------------|-------------------------------------|
 E|-------------------------------------|---------------------------------|-------------------------------------|
 B|-------------------------------------|---------------------------------|-------------------------------------|
F#|-2-----------------------------------|--------------------------5------|-2-----------------------------------|
C#|-0-----0----0----0----0----0----0----|-0----0----0----0----0----3------|-0-----0----0----0----0----0----0----|

C#|---------------------------------|-------------------------------------|---------------------------------|
G#|---------------------------------|-------------------------------------|---------------------------------|
 E|---------------------------------|-------------------------------------|---------------------------------|
 B|---------------------------------|-------------------------------------|---------------------------------|
F#|--------------------------5------|-2-----------------------------------|--------------------------5------|
C#|-0----0----0----0----0----3------|-0-----0----0----0----0----0----0----|-0----0----0----0----0----3------|

C#|-------------------------------------|---------------------------------|-------------------------------------|
G#|-------------------------------------|---------------------------------|-------------------------------------|
 E|-------------------------------------|---------------------------------|-------------------------------------|
 B|-------------------------------------|---------------------------------|-------------------------------------|
F#|-2-----------------------------------|--------------------------5------|-2-----------------------------------|
C#|-0-----0----0----0----0----0----0----|-0----0----0----0----0----3------|-0-----0----0----0----0----0----0----|

C#|---------------------------------|-------------------------------------|---------------------------------|
G#|---------------------------------|-------------------------------------|---------------------------------|
 E|---------------------------------|-------------------------------------|---------------------------------|
 B|---------------------------------|-------------------------------------|---------------------------------|
F#|--------------------------5------|-2-----------------------------------|--------------------------5------|
C#|-0----0----0----0----0----3------|-0-----0----0----0----0----0----0----|-0----0----0----0----0----3------|

C#|-------------------------------------|---------------------------------|-------------------------------------|
G#|-------------------------------------|---------------------------------|-------------------------------------|
 E|-------------------------------------|---------------------------------|-------------------------------------|
 B|-------------------------------------|---------------------------------|-------------------------------------|
F#|-2-----------------------------------|--------------------------5------|-2-----------------------------------|
C#|-0-----0----0----0----0----0----0----|-0----0----0----0----0----3------|-0-----0----0----0----0----0----0----|

C#|---------------------------------|-------------------------------------|---------------------------------|
G#|---------------------------------|-------------------------------------|---------------------------------|
 E|---------------------------------|-------------------------------------|---------------------------------|
 B|---------------------------------|-------------------------------------|---------------------------------|
F#|--------------------------5------|-2-----------------------------------|--------------------------5------|
C#|-0----0----0----0----0----3------|-0-----0----0----0----0----0----0----|-0----0----0----0----0----3------|

C#|-------------------------------------|---------------------------------|-------------------------------------|
G#|-------------------------------------|---------------------------------|-------------------------------------|
 E|-------------------------------------|---------------------------------|-------------------------------------|
 B|-------------------------------------|---------------------------------|-------------------------------------|
F#|-2-----------------------------------|--------------------------5------|-2-----------------------------------|
C#|-0-----0----0----0----0----0----0----|-0----0----0----0----0----3------|-0-----0----0----0----0----0----0----|

C#|---------------------------------|-------------------------------------|---------------------------------|
G#|---------------------------------|-------------------------------------|---------------------------------|
 E|---------------------------------|-------------------------------------|---------------------------------|
 B|---------------------------------|-------------------------------------|---------------------------------|
F#|--------------------------5------|-2-----------------------------------|--------------------------5------|
C#|-0----0----0----0----0----3------|-0-----0----0----0----0----0----0----|-0----0----0----0----0----3------|

C#|-------------------------------------|---------------------------------|-------------------------------------|
G#|-------------------------------------|---------------------------------|-------------------------------------|
 E|-------------------------------------|---------------------------------|-------------------------------------|
 B|-------------------------------------|---------------------------------|-------------------------------------|
F#|-2-----------------------------------|--------------------------5------|-2-----------------------------------|
C#|-0-----0----0----0----0----0----0----|-0----0----0----0----0----3------|-0-----0----0----0----0----0----0----|

C#|---------------------------------|-------------------------------------|---------------------------------|
G#|---------------------------------|-------------------------------------|---------------------------------|
 E|---------------------------------|-------------------------------------|---------------------------------|
 B|---------------------------------|-------------------------------------|---------------------------------|
F#|--------------------------5------|-2-----------------------------------|--------------------------5------|
C#|-0----0----0----0----0----3------|-0-----0----0----0----0----0----0----|-0----0----0----0----0----3------|

C#|-------------------------------------|---------------------------------|-------------------------------------|
G#|-------------------------------------|---------------------------------|-------------------------------------|
 E|-------------------------------------|---------------------------------|-------------------------------------|
 B|-------------------------------------|---------------------------------|-------------------------------------|
F#|-2-----------------------------------|--------------------------5------|-2-----------------------------------|
C#|-0-----0----0----0----0----0----0----|-0----0----0----0----0----3------|-0-----0----0----0----0----0----0----|

C#|---------------------------------|-------------------------------------|---------------------------------|
G#|---------------------------------|-------------------------------------|---------------------------------|
 E|---------------------------------|-------------------------------------|---------------------------------|
 B|---------------------------------|-------------------------------------|---------------------------------|
F#|--------------------------5------|-2-----------------------------------|--------------------------5------|
C#|-0----0----0----0----0----3------|-0-----0----0----0----0----0----0----|-0----0----0----0----0----3------|

C#|-------------------------------------|---------------------------------|-------------------------------------|
G#|-------------------------------------|---------------------------------|-------------------------------------|
 E|-------------------------------------|---------------------------------|-------------------------------------|
 B|-------------------------------------|---------------------------------|-------------------------------------|
F#|-2-----------------------------------|--------------------------5------|-2-----------------------------------|
C#|-0-----0----0----0----0----0----0----|-0----0----0----0----0----3------|-0-----0----0----0----0----0----0----|

C#|---------------------------------|-------------------------------------|---------------------------------|
G#|---------------------------------|-------------------------------------|---------------------------------|
 E|---------------------------------|-------------------------------------|---------------------------------|
 B|---------------------------------|-------------------------------------|---------------------------------|
F#|--------------------------5------|-2-----------------------------------|--------------------------5------|
C#|-0----0----0----0----0----3------|-0-----0----0----0----0----0----0----|-0----0----0----0----0----3------|

C#|-------------------------------------|---------------------------------|-------------------------------------|
G#|-------------------------------------|---------------------------------|-------------------------------------|
 E|-------------------------------------|---------------------------------|-------------------------------------|
 B|-------------------------------------|---------------------------------|-------------------------------------|
F#|-2-----------------------------------|--------------------------5------|-2-----------------------------------|
C#|-0-----0----0----0----0----0----0----|-0----0----0----0----0----3------|-0-----0----0----0----0----0----0----|

C#|---------------------------------|-------------------------------------|---------------------------------|
G#|---------------------------------|-------------------------------------|---------------------------------|
 E|---------------------------------|-------------------------------------|---------------------------------|
 B|---------------------------------|-------------------------------------|---------------------------------|
F#|--------------------------5------|-2-----------------------------------|--------------------------5------|
C#|-0----0----0----0----0----3------|-0-----0----0----0----0----0----0----|-0----0----0----0----0----3------|

C#|-------------------------------------|---------------------------------|-------------------------------------|
G#|-------------------------------------|---------------------------------|-------------------------------------|
 E|-------------------------------------|---------------------------------|-------------------------------------|
 B|-------------------------------------|---------------------------------|-------------------------------------|
F#|-2-----------------------------------|--------------------------5------|-2-----------------------------------|
C#|-0-----0----0----0----0----0----0----|-0----0----0----0----0----3------|-0-----0----0----0----0----0----0----|

C#|---------------------------------|-------------------------------------|---------------------------------|
G#|---------------------------------|-------------------------------------|---------------------------------|
 E|---------------------------------|-------------------------------------|---------------------------------|
 B|---------------------------------|-------------------------------------|---------------------------------|
F#|--------------------------5------|-2-----------------------------------|--------------------------5------|
C#|-0----0----0----0----0----3------|-0-----0----0----0----0----0----0----|-0----0----0----0----0----3------|

C#|-------------------------------------|---------------------------------|-------------------------------------|
G#|-------------------------------------|---------------------------------|-------------------------------------|
 E|-------------------------------------|---------------------------------|-------------------------------------|
 B|-------------------------------------|---------------------------------|-------------------------------------|
F#|-2-----------------------------------|--------------------------5------|-2-----------------------------------|
C#|-0-----0----0----0----0----0----0----|-0----0----0----0----0----3------|-0-----0----0----0----0----0----0----|

C#|---------------------------------|-------------------------------------|---------------------------------|
G#|---------------------------------|-------------------------------------|---------------------------------|
 E|---------------------------------|-------------------------------------|---------------------------------|
 B|---------------------------------|-------------------------------------|---------------------------------|
F#|--------------------------5------|-2-----------------------------------|--------------------------5------|
C#|-0----0----0----0----0----3------|-0-----0----0----0----0----0----0----|-0----0----0----0----0----3------|

C#|-------------------------------------|---------------------------------|-------------------------------------|
G#|-------------------------------------|---------------------------------|-------------------------------------|
 E|-------------------------------------|---------------------------------|-------------------------------------|
 B|-------------------------------------|---------------------------------|-------------------------------------|
F#|-2-----------------------------------|--------------------------5------|-2-----------------------------------|
C#|-0-----0----0----0----0----0----0----|-0----0----0----0----0----3------|-0-----0----0----0----0----0----0----|

C#|---------------------------------|--------------------|--------------------|---------------|
G#|---------------------------------|--------------------|--------------------|---------------|
 E|---------------------------------|--------------------|--------------------|---------------|
 B|---------------------------------|--------------------|--------------------|--------9------|
F#|--------------------------5------|-5------5-----5-----|-5-----5-----5------|-5------7------|
C#|-0----0----0----0----0----3------|-3------3-----3-----|-3-----3-----3------|-3-------------|

C#|--------------------|
G#|--------------------|
 E|-------%-----%------|
 B|-2-----%-----%------|
F#|-0------------------|
C#|--------------------|
Metallica - Free Speech For the Dumb
Metallica - Free Speech For the Dumb.gp3