Metallica - Fuck like a Beaver

Metallica



Title: Fuck like a Beaver
Album: 
Artist: Metallica
Author: 

Track 1: Guitar 
E|---------|-----------------------------------------------|-----------------------------------------------|
B|---------|-----------------------------------------------|-----------------------------------------------|
G|-%-------|-----------------------------------------------|-----------------------------------------------|
D|-%-------|-2----2--------------2----2--------------------|-2----2--------------2----2--------------------|
A|---------|-2----2--------------2----2--------------------|-2----2--------------2----2--------------------|
E|---------|-0----0----0----0----0----0----0---0---0---0---|-0----0----0----0----0----0----0---0---0---0---|

E|-----------------------------------------------|---------------------------------|
B|-----------------------------------------------|---------------------------------|
G|-----------------------------------------------|---------------------------------|
D|-2----2--------------2----2--------------------|-3-----2----3-----2----3----2----|
A|-2----2--------------2----2--------------------|-3-----2----3-----2----3----2----|
E|-0----0----0----0----0----0----0---0---0---0---|-1-----0----1-----0----1----0----|

E|-----------------------------------------------------|-----------------------------------------------------|
B|-----------------------------------------------------|-----------------------------------------------------|
G|-----------------------------------------------------|-----------------------------------------------------|
D|-2----2--------------------2----2--------------------|-2----2--------------------2----2--------------------|
A|-2----2--------------------2----2--------------------|-2----2--------------------2----2--------------------|
E|-0----0----0---0---0---0---0----0----0---0---0---0---|-0----0----0---0---0---0---0----0----0---0---0---0---|

E|-----------------------------------------------------|---------------------------------|
B|-----------------------------------------------------|---------------------------------|
G|-----------------------------------------------------|---------------------------------|
D|-2----2--------------------2----2--------------------|-3-----2----3-----2----3----2----|
A|-2----2--------------------2----2--------------------|-3-----2----3-----2----3----2----|
E|-0----0----0---0---0---0---0----0----0---0---0---0---|-1-----0----1-----0----1----0----|

E|-----------------------------------------------------|-----------------------------------------------------|
B|-----------------------------------------------------|-----------------------------------------------------|
G|-----------------------------------------------------|-----------------------------------------------------|
D|-2----2--------------------2----2--------------------|-2----2--------------------2----2--------------------|
A|-2----2--------------------2----2--------------------|-2----2--------------------2----2--------------------|
E|-0----0----0---0---0---0---0----0----0---0---0---0---|-0----0----0---0---0---0---0----0----0---0---0---0---|

E|-----------------------------------------------------|---------------------------------|
B|-----------------------------------------------------|---------------------------------|
G|-----------------------------------------------------|---------------------------------|
D|-2----2--------------------2----2--------------------|-3-----2----3-----2----3----2----|
A|-2----2--------------------2----2--------------------|-3-----2----3-----2----3----2----|
E|-0----0----0---0---0---0---0----0----0---0---0---0---|-1-----0----1-----0----1----0----|

E|-----------------------------------------------------|-----------------------------------------------------|
B|-----------------------------------------------------|-----------------------------------------------------|
G|-----------------------------------------------------|-----------------------------------------------------|
D|-2----2--------------------2----2--------------------|-2----2--------------------2----2--------------------|
A|-2----2--------------------2----2--------------------|-2----2--------------------2----2--------------------|
E|-0----0----0---0---0---0---0----0----0---0---0---0---|-0----0----0---0---0---0---0----0----0---0---0---0---|

E|-----------------------------------------------------|---------------------------------|
B|-----------------------------------------------------|---------------------------------|
G|-----------------------------------------------------|---------------------------------|
D|-2----2--------------------2----2--------------------|-3-----2----3-----2----3----2----|
A|-2----2--------------------2----2--------------------|-3-----2----3-----2----3----2----|
E|-0----0----0---0---0---0---0----0----0---0---0---0---|-1-----0----1-----0----1----0----|

E|---------|--------------------|-----------------------------------------------------|
B|---------|-------------5------|-----------------------------------------------------|
G|---------|-------------5------|-----------------------------------------------------|
D|-7-------|-5------------------|-2----2--------------------2----2--------------------|
A|-7-------|-5------------------|-2----2--------------------2----2--------------------|
E|-5-------|-3-----0------------|-0----0----0---0---0---0---0----0----0---0---0---0---|

E|-----------------------------------------------------|---------|--------------------|
B|-----------------------------------------------------|---------|-------------5------|
G|-----------------------------------------------------|---------|-------------5------|
D|-2----2--------------------2----2--------------------|-7-------|-5------------------|
A|-2----2--------------------2----2--------------------|-7-------|-5------------------|
E|-0----0----0---0---0---0---0----0----0---0---0---0---|-5-------|-3-----0------------|

E|-----------------------------------------------------|---------------------------------------|
B|-----------------------------------------------------|---------------------------------------|
G|-----------------------------------------------------|---------------------------------%-----|
D|-2----2--------------------2----2--------------------|-2----2--------------------2-----%-----|
A|-2----2--------------------2----2--------------------|-2----2--------------------2-----------|
E|-0----0----0---0---0---0---0----0----0---0---0---0---|-0----0----0---0---0---0---0-----------|

E|-----------------------------------------------------|-----------------------------------------------------|
B|-----------------------------------------------------|-----------------------------------------------------|
G|-----------------------------------------------------|-----------------------------------------------------|
D|-2----2--------------------2----2--------------------|-2----2--------------------2----2--------------------|
A|-2----2--------------------2----2--------------------|-2----2--------------------2----2--------------------|
E|-0----0----0---0---0---0---0----0----0---0---0---0---|-0----0----0---0---0---0---0----0----0---0---0---0---|

E|-----------------------------------------------------|---------------------------------|
B|-----------------------------------------------------|---------------------------------|
G|-----------------------------------------------------|---------------------------------|
D|-2----2--------------------2----2--------------------|-3-----2----3-----2----3----2----|
A|-2----2--------------------2----2--------------------|-3-----2----3-----2----3----2----|
E|-0----0----0---0---0---0---0----0----0---0---0---0---|-1-----0----1-----0----1----0----|

E|-----------------------------------------------------|-----------------------------------------------------|
B|-----------------------------------------------------|-----------------------------------------------------|
G|-----------------------------------------------------|-----------------------------------------------------|
D|-2----2--------------------2----2--------------------|-2----2--------------------2----2--------------------|
A|-2----2--------------------2----2--------------------|-2----2--------------------2----2--------------------|
E|-0----0----0---0---0---0---0----0----0---0---0---0---|-0----0----0---0---0---0---0----0----0---0---0---0---|

E|-----------------------------------------------------|---------------------------------|
B|-----------------------------------------------------|---------------------------------|
G|-----------------------------------------------------|---------------------------------|
D|-2----2--------------------2----2--------------------|-3-----2----3-----2----3----2----|
A|-2----2--------------------2----2--------------------|-3-----2----3-----2----3----2----|
E|-0----0----0---0---0---0---0----0----0---0---0---0---|-1-----0----1-----0----1----0----|

E|---------|--------------------|-----------------------------------------------------|
B|---------|-------------5------|-----------------------------------------------------|
G|---------|-------------5------|-----------------------------------------------------|
D|-7-------|-5------------------|-2----2--------------------2----2--------------------|
A|-7-------|-5------------------|-2----2--------------------2----2--------------------|
E|-5-------|-3-----0------------|-0----0----0---0---0---0---0----0----0---0---0---0---|

E|-----------------------------------------------------|---------|--------------------|
B|-----------------------------------------------------|---------|-------------5------|
G|-----------------------------------------------------|---------|-------------5------|
D|-2----2--------------------2----2--------------------|-7-------|-5------------------|
A|-2----2--------------------2----2--------------------|-7-------|-5------------------|
E|-0----0----0---0---0---0---0----0----0---0---0---0---|-5-------|-3-----0------------|

E|-----------------------------------------------------|---------------------------------------|
B|-----------------------------------------------------|---------------------------------5-----|
G|-----------------------------------------------------|---------------------------------5-----|
D|-2----2--------------------2----2--------------------|-2----2--------------------2-----------|
A|-2----2--------------------2----2--------------------|-2----2--------------------2-----------|
E|-0----0----0---0---0---0---0----0----0---0---0---0---|-0----0----0---0---0---0---0-----------|

E|--------------------------------------------------|--------------------------------------------------|
B|--------------------------------------------------|--------------------------------------------------|
G|--------------------------------------------------|--------------------------------------------------|
D|-7----7---7---7----7---7---7----7---7---7----5----|-7----7---7---7----7---7---7----7---7---7----5----|
A|-7----7---7---7----7---7---7----7---7---7----5----|-7----7---7---7----7---7---7----7---7---7----5----|
E|-5----5---5---5----5---5---5----5---5---5----3----|-5----5---5---5----5---5---5----5---5---5----3----|

E|--------------------------------------------------|--------------------------------------------------|
B|--------------------------------------------------|--------------------------------------------------|
G|--------------------------------------------------|--------------------------------------------------|
D|-7----7---7---7----7---7---7----7---7---7----5----|-7----7---7---7----7---7---7----7---7---7----5----|
A|-7----7---7---7----7---7---7----7---7---7----5----|-7----7---7---7----7---7---7----7---7---7----5----|
E|-5----5---5---5----5---5---5----5---5---5----3----|-5----5---5---5----5---5---5----5---5---5----3----|

E|--------------------------------------------------|--------------------------------------------------|
B|--------------------------------------------------|--------------------------------------------------|
G|--------------------------------------------------|--------------------------------------------------|
D|-7----7---7---7----7---7---7----7---7---7----5----|-7----7---7---7----7---7---7----7---7---7----5----|
A|-7----7---7---7----7---7---7----7---7---7----5----|-7----7---7---7----7---7---7----7---7---7----5----|
E|-5----5---5---5----5---5---5----5---5---5----3----|-5----5---5---5----5---5---5----5---5---5----3----|

E|--------------------------------------------------|--------------------------------------------------|
B|--------------------------------------------------|--------------------------------------------------|
G|--------------------------------------------------|--------------------------------------------------|
D|-7----7---7---7----7---7---7----7---7---7----5----|-7----7---7---7----7---7---7----7---7---7----5----|
A|-7----7---7---7----7---7---7----7---7---7----5----|-7----7---7---7----7---7---7----7---7---7----5----|
E|-5----5---5---5----5---5---5----5---5---5----3----|-5----5---5---5----5---5---5----5---5---5----3----|

E|-----------------------------------------------------|-----------------------------------------------------|
B|-----------------------------------------------------|-----------------------------------------------------|
G|-----------------------------------------------------|-----------------------------------------------------|
D|-2----2--------------------2----2--------------------|-2----2--------------------2----2--------------------|
A|-2----2--------------------2----2--------------------|-2----2--------------------2----2--------------------|
E|-0----0----0---0---0---0---0----0----0---0---0---0---|-0----0----0---0---0---0---0----0----0---0---0---0---|

E|-----------------------------------------------------|---------------------------------|
B|-----------------------------------------------------|---------------------------------|
G|-----------------------------------------------------|---------------------------------|
D|-2----2--------------------2----2--------------------|-3-----2----3-----2----3----2----|
A|-2----2--------------------2----2--------------------|-3-----2----3-----2----3----2----|
E|-0----0----0---0---0---0---0----0----0---0---0---0---|-1-----0----1-----0----1----0----|

E|-----------------------------------------------------|-----------------------------------------------------|
B|-----------------------------------------------------|-----------------------------------------------------|
G|-----------------------------------------------------|-----------------------------------------------------|
D|-2----2--------------------2----2--------------------|-2----2--------------------2----2--------------------|
A|-2----2--------------------2----2--------------------|-2----2--------------------2----2--------------------|
E|-0----0----0---0---0---0---0----0----0---0---0---0---|-0----0----0---0---0---0---0----0----0---0---0---0---|

E|-----------------------------------------------------|---------------------------------|
B|-----------------------------------------------------|---------------------------------|
G|-----------------------------------------------------|---------------------------------|
D|-2----2--------------------2----2--------------------|-3-----2----3-----2----3----2----|
A|-2----2--------------------2----2--------------------|-3-----2----3-----2----3----2----|
E|-0----0----0---0---0---0---0----0----0---0---0---0---|-1-----0----1-----0----1----0----|

E|---------|--------------------|-----------------------------------------------------|
B|---------|-------------5------|-----------------------------------------------------|
G|---------|-------------5------|-----------------------------------------------------|
D|-7-------|-5------------------|-2----2--------------------2----2--------------------|
A|-7-------|-5------------------|-2----2--------------------2----2--------------------|
E|-5-------|-3-----0------------|-0----0----0---0---0---0---0----0----0---0---0---0---|

E|---------|--------------------|-----------------------------------------------------|
B|---------|-------------5------|-----------------------------------------------------|
G|---------|-------------5------|-----------------------------------------------------|
D|-7-------|-5------------------|-2----2--------------------2----2--------------------|
A|-7-------|-5------------------|-2----2--------------------2----2--------------------|
E|-5-------|-3-----0------------|-0----0----0---0---0---0---0----0----0---0---0---0---|

E|---------------------------------------|---------|
B|---------------------------------------|---------|
G|---------------------------------%-----|-%-------|
D|-2----2--------------------2-----%-----|-%-------|
A|-2----2--------------------2-----------|---------|
E|-0----0----0---0---0---0---0-----------|---------|
Metallica - Fuck like a Beaver
Metallica - Fuck like a Beaver.gp3