Metallica - Fuel

Metallica



Title: Fuel
Album: 
Artist: 
Author: Metallica

Track 1: James Hetfield (Guitar)
D#|-----------------------------------------|-----------------------------------------|
A#|-----------------------------------------|-----------------------------------------|
F#|-----------------------------------------|-----------------------------------------|
C#|-----------------------------------------|-----------------------------------------|
G#|-----------------------------------------|-----------------------------------------|
D#|-3----0----0----3----0----0----3----0----|-3----0----0----3----0----0----3----0----|

D#|-----------------------------------------|-----------------------------------------|
A#|-----------------------------------------|-----------------------------------------|
F#|-----------------------------------------|-----------------------------------------|
C#|-----------------------------------------|-----------------------------------------|
G#|-----------------------------------------|-----------------------------------------|
D#|-3----0----0----3----0----0----3----0----|-3----0----0----3----0----0----3----0----|

D#|-----------------------------------------|-----------------------------------------|
A#|-----------------------------------------|-----------------------------------------|
F#|-----------------------------------------|-----------------------------------------|
C#|-----------------------------------------|-0----2----2----2----2----0----0----2----|
G#|-----------------------------------------|------0----0----0----0--------------0----|
D#|-3----0----0----3----0----0----3----0----|-3------------------------3----3---------|

D#|-----------------------------------------|-----------------------------------------|
A#|-----------------------------------------|-----------------------------------------|
F#|-----------------------------------------|-----------------------------------------|
C#|-----------------------------------------|-----------------------------------------|
G#|-----------------------------------------|-----------------------------------------|
D#|-3----0----0----3----0----0----3----0----|-3----0----0----3----0----0----3----0----|

D#|-----------------------------------------|-----------------------------------------|
A#|-----------------------------------------|-----------------------------------------|
F#|-----------------------------------------|-----------------------------------------|
C#|-----------------------------------------|-0----2----2----2----2----0----0----2----|
G#|-----------------------------------------|------0----0----0----0-------------------|
D#|-3----0----0----3----0----0----3----0----|-3------------------------3--------------|

D#|-------------------------------------|-------------------------------------|-------------------------------------|
A#|-------------------------------------|-------------------------------------|-------------------------------------|
F#|-2----2----2----0--------------------|-2----2----2----0--------------------|-2----2----2----0--------------------|
C#|----------------------2----0----2----|----------------------2----0----2----|----------------------2----0----2----|
G#|-------------------------------------|-------------------------------------|-------------------------------------|
D#|-------------------------------------|-------------------------------------|-------------------------------------|

D#|----------------------------------------|-----------------------------------------|
A#|----------------------------------------|-----------------------------------------|
F#|-2----2----2----0-----------------------|-----------------------------------------|
C#|----------------------2----0-----0------|-----------------------------------------|
G#|----------------------------------------|-----------------------------------------|
D#|-------------------------------------3--|-3----0----0----3----0----0----3----0----|

D#|-----------------------------------------|---------|---------|---------|---------|
A#|-----------------------------------------|---------|---------|---------|---------|
F#|-----------------------------------------|---------|---------|---------|---------|
C#|-----------------------------------------|---------|-0-------|---------|---------|
G#|-----------------------------------------|-2-------|---------|-2-------|-2-------|
D#|-3----0----0----3----0----0----3----0----|-0-------|-3-------|-0-------|-0-------|

D#|---------|---------|---------|-------------------|-------------------------------------|
A#|---------|---------|---------|-------------------|-------------------------------------|
F#|---------|---------|---------|-------------------|-2----2----2----0--------------------|
C#|---------|-4-------|-3-------|-2-------0----2----|----------------------2----0----2----|
G#|-2-------|-2-------|-1-------|-0-----------------|-------------------------------------|
D#|-0-------|---------|---------|-------------------|-------------------------------------|

D#|-------------------------------------|-------------------------------------|----------------------------------------|
A#|-------------------------------------|-------------------------------------|----------------------------------------|
F#|-2----2----2----0--------------------|-2----2----2----0--------------------|-2----2----2----0-----------------------|
C#|----------------------2----0----2----|----------------------2----0----2----|----------------------2----0-----0------|
G#|-------------------------------------|-------------------------------------|----------------------------------------|
D#|-------------------------------------|-------------------------------------|-------------------------------------3--|

D#|-----------------------------------------|-----------------------------------------|
A#|-----------------------------------------|-----------------------------------------|
F#|-----------------------------------------|-----------------------------------------|
C#|-----------------------------------------|-----------------------------------------|
G#|-----------------------------------------|-----------------------------------------|
D#|-3----0----0----3----0----0----3----0----|-3----0----0----3----0----0----3----0----|

D#|---------|---------|---------|---------|---------|---------|---------|-------------------|
A#|---------|---------|---------|---------|---------|---------|---------|-------------------|
F#|---------|---------|---------|---------|---------|---------|---------|-------------------|
C#|---------|-0-------|---------|---------|---------|-4-------|-3-------|-2-------0----2----|
G#|-2-------|---------|-2-------|-2-------|-2-------|-2-------|-1-------|-0-----------------|
D#|-0-------|-3-------|-0-------|-0-------|-0-------|---------|---------|-------------------|

D#|-------------------------------------|-------------------------------------|-------------------------------------|
A#|-------------------------------------|-------------------------------------|-------------------------------------|
F#|-2----2----2----0--------------------|-2----2----2----0--------------------|-2----2----2----0--------------------|
C#|----------------------2----0----2----|----------------------2----0----2----|----------------------2----0----2----|
G#|-------------------------------------|-------------------------------------|-------------------------------------|
D#|-------------------------------------|-------------------------------------|-------------------------------------|

D#|----------------------------------------|-----------------------------------------|
A#|----------------------------------------|-----------------------------------------|
F#|-2----2----2----0-----------------------|-----------------------------------------|
C#|----------------------2----0-----0------|-----------------------------------------|
G#|----------------------------------------|-----------------------------------------|
D#|-------------------------------------3--|-3----0----0----3----0----0----3----0----|

D#|-----------------------------------------|-----------------------------------------|
A#|-----------------------------------------|-----------------------------------------|
F#|-----------------------------------------|-----------------------------------------|
C#|-----------------------------------------|-----------------------------------------|
G#|-----------------------------------------|-----------------------------------------|
D#|-3----0----0----3----0----0----3----0----|-3----0----0----3----0----0----3----0----|

D#|-12---12---10----------------------------|-------------------------------------|
A#|----------------12---12---10---10--------|-------------------------------------|
F#|------------------------------------11---|-------------------------------------|
C#|-----------------------------------------|-------------------------------------|
G#|-----------------------------------------|----------------7----7---------------|
D#|-----------------------------------------|-12---10---0---------------0----0----|

D#|-------------------------------------|-------------------------------------|-------------------------------------|
A#|-------------------------------------|-------------------------------------|-------------------------------------|
F#|-------------------------------------|-------------------------------------|-------------------------------------|
C#|-2----0---------2----2---------------|-2----0---------2----2---------------|-2----0---------2----2---------------|
G#|-------------------------------------|-----------0---------------0----0----|-----------0---------------0----0----|
D#|-----------0---------------0----0----|-------------------------------------|-------------------------------------|

D#|-------------------------------------|-------------------------------------|-------------------------------------|
A#|-------------------------------------|-------------------------------------|-------------------------------------|
F#|-------------------------------------|-------------------------------------|-------------------------------------|
C#|-2----0---------2----2---------------|-2----0---------2----2---------------|-2----0---------2----2---------------|
G#|-------------------------------------|-------------------------------------|-----------0---------------0----0----|
D#|-----------3---------------3----3----|-----------3---------------3----3----|-------------------------------------|

D#|-------------------------------------|-------------------------------------|-------------------------------------|
A#|-------------------------------------|-------------------------------------|-------------------------------------|
F#|-------------------------------------|-------------------------------------|-------------------------------------|
C#|-2----0---------2----2---------------|-2----0---------2----2---------------|-2----0---------2----2---------------|
G#|-----------0---------------0----0----|-------------------------------------|-------------------------------------|
D#|-------------------------------------|-----------0---------------0----0----|-----------0---------------0----0----|

D#|-------------------------------------|-------------------------------------|-------------------------------------|
A#|-------------------------------------|-------------------------------------|-------------------------------------|
F#|-------------------------------------|-------------------------------------|-------------------------------------|
C#|-2----0---------2----2---------------|-2----0---------2----2---------------|-2----0---------2----2---------------|
G#|-----------0---------------0----0----|-----------0---------------0----0----|-----------3---------------3----3----|
D#|-------------------------------------|-------------------------------------|-------------------------------------|

D#|-------------------------------------|-------------------------------------|-------------------------------------|
A#|-------------------------------------|-------------------------------------|-------------------------------------|
F#|-------------------------------------|-2-----------------------------------|-2-----------------------------------|
C#|-2----0---------2----2---------------|------4----0----4----4-----0----0----|------4----0----4----4-----0----0----|
G#|-----------3---------------3----3----|-------------------------------------|-------------------------------------|
D#|-------------------------------------|-------------------------------------|-------------------------------------|

D#|-----------------------------------------|-----------------------------------------|
A#|-----------------------------------------|-----------------------------------------|
F#|-----------------------------------------|-----------------------------------------|
C#|-----------------------------------------|-----------------------------------------|
G#|-----------------------------------------|-----------------------------------------|
D#|-3----0----0----3----0----0----3----0----|-3----0----0----3----0----0----3----0----|

D#|--------------------|---------|-----------------------------------------|-----------------------------------------|
A#|--------------------|---------|-----------------------------------------|-----------------------------------------|
F#|-------%------%-----|-%-------|-----------------------------------------|-----------------------------------------|
C#|-------%------%-----|-%-------|-----------------------------------------|-----------------------------------------|
G#|-2------------------|---------|-----------------------------------------|-----------------------------------------|
D#|-0------------------|---------|-3----0----0----3----0----0----3----0----|-3----0----0----3----0----0----3----0----|

D#|-----------------------------------------|-----------------------------------------|
A#|-----------------------------------------|-----------------------------------------|
F#|-----------------------------------------|-----------------------------------------|
C#|-----------------------------------------|-----------------------------------------|
G#|-----------------------------------------|-----------------------------------------|
D#|-3----0----0----3----0----0----3----0----|-3----0----0----3----0----0----3----0----|

D#|-----------------------------------------|-----------------------------------------|
A#|-----------------------------------------|-----------------------------------------|
F#|-----------------------------------------|-----------------------------------------|
C#|-----------------------------------------|-0----2----2----2----2----0----0----2----|
G#|-----------------------------------------|------0----0----0----0--------------0----|
D#|-3----0----0----3----0----0----3----0----|-3------------------------3----3---------|

D#|-----------------------------------------|-----------------------------------------|
A#|-----------------------------------------|-----------------------------------------|
F#|-----------------------------------------|-----------------------------------------|
C#|-----------------------------------------|-----------------------------------------|
G#|-----------------------------------------|-----------------------------------------|
D#|-3----0----0----3----0----0----3----0----|-3----0----0----3----0----0----3----0----|

D#|-----------------------------------------|-----------------------------------------|
A#|-----------------------------------------|-----------------------------------------|
F#|-----------------------------------------|-----------------------------------------|
C#|-----------------------------------------|-0----2----2----2----2----0----0----2----|
G#|-----------------------------------------|------0----0----0----0-------------------|
D#|-3----0----0----3----0----0----3----0----|-3------------------------3--------------|

D#|-------------------------------------|-------------------------------------|-------------------------------------|
A#|-------------------------------------|-------------------------------------|-------------------------------------|
F#|-2----2----2----0--------------------|-2----2----2----0--------------------|-2----2----2----0--------------------|
C#|----------------------2----0----2----|----------------------2----0----2----|----------------------2----0----2----|
G#|-------------------------------------|-------------------------------------|-------------------------------------|
D#|-------------------------------------|-------------------------------------|-------------------------------------|

D#|----------------------------------------|-----------------------------------------|
A#|----------------------------------------|-----------------------------------------|
F#|-2----2----2----0--------------------%--|-----------------------------------------|
C#|----------------------2----0-----0---%--|-----------------------------------------|
G#|----------------------------------------|-----------------------------------------|
D#|----------------------------------------|-3----0----0----3----0----0----3----0----|

D#|-----------------------------------------|---------|---------|---------|---------|
A#|-----------------------------------------|---------|---------|---------|---------|
F#|-----------------------------------------|---------|---------|---------|---------|
C#|-----------------------------------------|---------|-0-------|---------|---------|
G#|-----------------------------------------|-2-------|---------|-2-------|-2-------|
D#|-3----0----0----3----0----0----3----0----|-0-------|-3-------|-0-------|-0-------|

D#|---------|---------|---------|-------------------|-------------------------------------|
A#|---------|---------|---------|-------------------|-------------------------------------|
F#|---------|---------|---------|-------------------|-2----2----2----0--------------------|
C#|---------|-4-------|-3-------|-2-------0----2----|----------------------2----0----2----|
G#|-2-------|-2-------|-1-------|-0-----------------|-------------------------------------|
D#|-0-------|---------|---------|-------------------|-------------------------------------|

D#|-------------------------------------|-------------------------------------|----------------------------------------|
A#|-------------------------------------|-------------------------------------|----------------------------------------|
F#|-2----2----2----0--------------------|-2----2----2----0--------------------|-2----2----2----0--------------------%--|
C#|----------------------2----0----2----|----------------------2----0----2----|----------------------2----0-----0---%--|
G#|-------------------------------------|-------------------------------------|----------------------------------------|
D#|-------------------------------------|-------------------------------------|----------------------------------------|

D#|-----------------------------------------|-----------------------------------------|
A#|-----------------------------------------|-----------------------------------------|
F#|-----------------------------------------|-----------------------------------------|
C#|-----------------------------------------|-----------------------------------------|
G#|-----------------------------------------|-----------------------------------------|
D#|-3----0----0----3----0----0----3----0----|-3----0----0----3----0----0----3----0----|

D#|---------|---------|---------|--------------------------------------------------------------|
A#|---------|---------|---------|--------------------------------------------------------------|
F#|---------|---------|---------|--------------2----%----%---%--2---2--%--%--3---3--%----%--%--|
C#|---------|-0-------|---------|--------------4----%----%---%---------%--%--5---5--%----%--%--|
G#|-2-------|---------|-2-------|-2-----2---2-------------------2---2--------5---5-------------|
D#|-0-------|-3-------|-0-------|-0-----0---0--3----------------4---4--------0---0-------------|

D#|---------|---------|---------|-------------------|-------------------------------------|
A#|---------|---------|---------|-------------------|-------------------------------------|
F#|---------|---------|---------|-------------------|-2----2----2----0--------------------|
C#|---------|-4-------|-3-------|-2-------0----2----|----------------------2----0----2----|
G#|-2-------|-2-------|-1-------|-0-----------------|-------------------------------------|
D#|-0-------|---------|---------|-------------------|-------------------------------------|

D#|-------------------------------------|-------------------------------------|----------------------------------------|
A#|-------------------------------------|-------------------------------------|----------------------------------------|
F#|-2----2----2----0--------------------|-2----2----2----0--------------------|-2----2----2----0--------------------%--|
C#|----------------------2----0----2----|----------------------2----0----2----|----------------------2----0-----0---%--|
G#|-------------------------------------|-------------------------------------|----------------------------------------|
D#|-------------------------------------|-------------------------------------|----------------------------------------|

D#|-----------------------------------------|-----------------------------------------|
A#|-----------------------------------------|-----------------------------------------|
F#|-----------------------------------------|-----------------------------------------|
C#|-----------------------------------------|-----------------------------------------|
G#|-----------------------------------------|-----------------------------------------|
D#|-3----0----0----3----0----0----3----0----|-3----0----0----3----0----0----3----0----|

D#|-----------------------------------------|-12---12---10----------------------------|
A#|-----------------------------------------|----------------12---12---10---10--------|
F#|-----------------------------------------|------------------------------------11---|
C#|-----------------------------------------|-----------------------------------------|
G#|-----------------------------------------|-----------------------------------------|
D#|-3----0----0----3----0----0----3----0----|-----------------------------------------|

D#|-------------------------------------|-------------------------------------|-------------------------------------|
A#|-------------------------------------|-------------------------------------|-------------------------------------|
F#|-------------------------------------|-------------------------------------|-------------------------------------|
C#|-------------------------------------|-2----0---------2----2---------------|-2----0---------2----2---------------|
G#|----------------7----7---------------|-------------------------------------|-----------0---------------0----0----|
D#|-12---10---0---------------0----0----|-----------0---------------0----0----|-------------------------------------|

D#|-------------------------------------|-------------------------------------|-------------------------------------|
A#|-------------------------------------|-------------------------------------|-------------------------------------|
F#|-------------------------------------|-------------------------------------|-------------------------------------|
C#|-2----0---------2----2---------------|-2----0---------2----2---------------|-2----0---------2----2---------------|
G#|-----------0---------------0----0----|-------------------------------------|-------------------------------------|
D#|-------------------------------------|-----------3---------------3----3----|-----------3---------------3----3----|

D#|-------------------------------------|-------------------------------------|-------------------------------------|
A#|-------------------------------------|-------------------------------------|-------------------------------------|
F#|-------------------------------------|-------------------------------------|-------------------------------------|
C#|-2----0---------2----2---------------|-2----0---------2----2---------------|-2----0---------2----2---------------|
G#|-----------0---------------0----0----|-----------0---------------0----0----|-------------------------------------|
D#|-------------------------------------|-------------------------------------|-----------0---------------0----0----|

D#|-------------------------------------|-------------------------------------|-------------------------------------|
A#|-------------------------------------|-------------------------------------|-------------------------------------|
F#|-------------------------------------|-------------------------------------|-------------------------------------|
C#|-2----0---------2----2---------------|-2----0---------2----2---------------|-2----0---------2----2---------------|
G#|-------------------------------------|-----------0---------------0----0----|-----------0---------------0----0----|
D#|-----------0---------------0----0----|-------------------------------------|-------------------------------------|

D#|-------------------------------------|-------------------------------------|-------------------------------------|
A#|-------------------------------------|-------------------------------------|-------------------------------------|
F#|-------------------------------------|-------------------------------------|-2-----------------------------------|
C#|-2----0---------2----2---------------|-2----0---------2----2---------------|------4----0----4----4-----0----0----|
G#|-----------3---------------3----3----|-----------3---------------3----3----|-------------------------------------|
D#|-------------------------------------|-------------------------------------|-------------------------------------|

D#|-------------------------------------|-----------------------------------------|
A#|-------------------------------------|-----------------------------------------|
F#|-2-----------------------------------|-----------------------------------------|
C#|------4----0----4----4-----0----0----|-----------------------------------------|
G#|-------------------------------------|-----------------------------------------|
D#|-------------------------------------|-3----0----0----3----0----0----3----0----|

D#|-----------------------------------------|--------------------|---------|---------|
A#|-----------------------------------------|--------------------|---------|---------|
F#|-----------------------------------------|-------%------%-----|-%-------|-%-------|
C#|-----------------------------------------|-------%------%-----|-%-------|-%-------|
G#|-----------------------------------------|-2------------------|---------|---------|
D#|-3----0----0----3----0----0----3----0----|-0------------------|---------|---------|

D#|---------|-----------------------------|-----------------------------------------|
A#|---------|-----------------------------|-----------------------------------------|
F#|-%-------|-2----2----2----0------------|-------%---------%---------%---------%---|
C#|-%-------|-2----2----2----0------2-----|-------%---------%---------%---------%---|
G#|---------|-----------------------2-----|-2---------2---------2---------2---------|
D#|---------|-----------------------------|-0---------0---------0---------0---------|

D#|-----------------------------|----------------------------|-----------------------------|
A#|-----------------------------|----------------------------|-----------------------------|
F#|-2----2----2----0------------|-------%---------%----------|-2----2----2----0------------|
C#|-2----2----2----0------2-----|-------%---------%---0------|-2----2----2----0------2-----|
G#|-----------------------2-----|-2---------2----------------|-----------------------2-----|
D#|-----------------------------|-0---------0---------3------|-----------------------------|

D#|-----------------------------------------|-----------------------------|----------------------------|
A#|-----------------------------------------|-----------------------------|----------------------------|
F#|-------%---------%---------%---------%---|-2----2----2----0------------|-------%---------%----------|
C#|-------%---------%---------%---------%---|-2----2----2----0------2-----|-------%---------%---0------|
G#|-2---------2---------2---------2---------|-----------------------2-----|-2---------2----------------|
D#|-0---------0---------0---------0---------|-----------------------------|-0---------0---------3------|

D#|-----------------------------|-----------------------------------------|-----------------------------|
A#|-----------------------------|-----------------------------------------|-----------------------------|
F#|-2----2----2----0------------|-------%---------%---------%---------%---|-2----2----2----0------------|
C#|-2----2----2----0------2-----|-------%---------%---------%---------%---|-2----2----2----0------2-----|
G#|-----------------------2-----|-2---------2---------2---------2---------|-----------------------2-----|
D#|-----------------------------|-0---------0---------0---------0---------|-----------------------------|

D#|----------------------------|-----------------------------|-----------------------------------------|
A#|----------------------------|-----------------------------|-----------------------------------------|
F#|-------%---------%----------|-2----2----2----0------------|-------%---------%---------%---------%---|
C#|-------%---------%---0------|-2----2----2----0------2-----|-------%---------%---------%---------%---|
G#|-2---------2----------------|-----------------------2-----|-2---------2---------2---------2---------|
D#|-0---------0---------3------|-----------------------------|-0---------0---------0---------0---------|

D#|-----------------------------|----------------------------|---------------------------------|
A#|-----------------------------|----------------------------|---------------------------------|
F#|-2----2----2----0------------|-------%---------%----------|-2----2----2----0----------------|
C#|-2----2----2----0------2-----|-------%---------%---0------|-2----2----2----0----------------|
G#|-----------------------2-----|-2---------2----------------|---------------------------------|
D#|-----------------------------|-0---------0---------3------|-----------------------0----0----|

D#|---------------------------------|---------------------------------|---------|---------------------------------|
A#|---------------------------------|---------------------------------|---------|---------------------------------|
F#|-0-----------------%---------%---|-2----2----2----0----------------|-0-------|-2----2----2----0----------------|
C#|-0-----2-----------%---------%---|-2----2----2----0----------------|-0-------|-2----2----2----0----------------|
G#|-------2-----2---------2---------|---------------------------------|---------|---------------------------------|
D#|-------------0---------0---------|-----------------------0----0----|-3-------|-----------------------0----0----|

D#|---------------------------------|---------------------------------|---------|---------------------------------|
A#|---------------------------------|---------------------------------|---------|---------------------------------|
F#|-0-----------------%---------%---|-2----2----2----0----------------|-0-------|-2----2----2----0----------------|
C#|-0-----2-----------%---------%---|-2----2----2----0----------------|-0-------|-2----2----2----0----------------|
G#|-------2-----2---------2---------|---------------------------------|---------|---------------------------------|
D#|-------------0---------0---------|-----------------------0----0----|-3-------|-----------------------0----0----|

D#|---------------------------------|---------------------------------|---------|---------------------------------|
A#|---------------------------------|---------------------------------|---------|---------------------------------|
F#|-0-----------------%---------%---|-2----2----2----0----------------|-0-------|-2----2----2----0----------------|
C#|-0-----2-----------%---------%---|-2----2----2----0----------------|-0-------|-2----2----2----0----------------|
G#|-------2-----2---------2---------|---------------------------------|---------|---------------------------------|
D#|-------------0---------0---------|-----------------------0----0----|-3-------|-----------------------0----0----|

D#|---------------------------------|---------------------------------|-------------------|
A#|---------------------------------|---------------------------------|-------------------|
F#|-0-----------------%---------%---|-2----2----2----0----------------|-0-----------------|
C#|-0-----2-----------%---------%---|-2----2----2----0----------------|-0-------0----2----|
G#|-------2-----2---------2---------|---------------------------------|-------------------|
D#|-------------0---------0---------|-----------------------0----0----|-3-----------------|

D#|-------------------------------------|-------------------------------------|-------------------------------------|
A#|-------------------------------------|-------------------------------------|-------------------------------------|
F#|-2----2----2----0--------------------|-2----2----2----0--------------------|-2----2----2----0--------------------|
C#|----------------------2----0----2----|----------------------2----0----2----|----------------------2----0----2----|
G#|-------------------------------------|-------------------------------------|-------------------------------------|
D#|-------------------------------------|-------------------------------------|-------------------------------------|

D#|----------------------------------------|-----------------------------------------|
A#|----------------------------------------|-----------------------------------------|
F#|-2----2----2----0-----------------------|-----------------------------------------|
C#|----------------------2----0-----0------|-----------------------------------------|
G#|----------------------------------------|-----------------------------------------|
D#|-------------------------------------3--|-3----0----0----3----0----0----3----0----|

D#|-----------------------------------------|-----------------------------------------|
A#|-----------------------------------------|-----------------------------------------|
F#|-----------------------------------------|-----------------------------------------|
C#|-----------------------------------------|-----------------------------------------|
G#|-----------------------------------------|-----------------------------------------|
D#|-3----0----0----3----0----0----3----0----|-3----0----0----3----0----0----3----0----|

D#|-----------------------------------------|-----------------------------------------|
A#|-----------------------------------------|-----------------------------------------|
F#|-----------------------------------------|-----------------------------------------|
C#|-0----2----2----2----2----0----0----2----|-----------------------------------------|
G#|------0----0----0----0--------------0----|-----------------------------------------|
D#|-3------------------------3----3---------|-3----0----0----3----0----0----3----0----|

D#|-----------------------------------------|-----------------------------------------|
A#|-----------------------------------------|-----------------------------------------|
F#|-----------------------------------------|-----------------------------------------|
C#|-----------------------------------------|-----------------------------------------|
G#|-----------------------------------------|-----------------------------------------|
D#|-3----0----0----3----0----0----3----0----|-3----0----0----3----0----0----3----0----|

D#|-----------------------------------------|----------------------------|----------------------------|
A#|-----------------------------------------|----------------------------|----------------------------|
F#|-----------------------------------------|----------------------------|----------------------------|
C#|-0----2----2----2----2----0----0----2----|-2--------------0------0----|-2--------------0------0----|
G#|------0----0----0----0--------------0----|-0--------------------------|-0--------------------------|
D#|-3------------------------3----3---------|------0----0----3------3----|------0----0----3------3----|

D#|----------------------------|----------------------------|----------------------------|
A#|----------------------------|----------------------------|----------------------------|
F#|----------------------------|----------------------------|----------------------------|
C#|-2--------------0------0----|-0---------2----2----0------|-2--------------0------0----|
G#|-0--------------------------|-----------0----0-----------|-0--------------------------|
D#|------0----0----3------3----|-3----0--------------3------|------0----0----3------3----|

D#|----------------------------|----------------------------|---------------------|
A#|----------------------------|----------------------------|---------------------|
F#|----------------------------|----------------------------|---------------------|
C#|-2--------------0------0----|-2--------------0------0----|-0-------------------|
G#|-0--------------------------|-0--------------------------|--------4------3-----|
D#|------0----0----3------3----|------0----0----3------3----|-3------2------1-----|

D#|-----------------------------------------|-----------------------------------------|
A#|-----------------------------------------|-----------------------------------------|
F#|-----------------------------------------|-----------------------------------------|
C#|-----------------------------------------|-----------------------------------------|
G#|-----------------------------------------|-----------------------------------------|
D#|-3----0----0----3----0----0----3----0----|-3----0----0----3----0----0----3----0----|

D#|-----------------------------------------|-----------------------------------------|
A#|-----------------------------------------|-----------------------------------------|
F#|-----------------------------------------|-----------------------------------------|
C#|-----------------------------------------|-----------------------------------------|
G#|-----------------------------------------|-----------------------------------------|
D#|-3----0----0----3----0----0----3----0----|-3----0----0----3----0----0----3----0----|

D#|-------------------------------------|-------------------------------------|-------------------------------------|
A#|-------------------------------------|-------------------------------------|-------------------------------------|
F#|-------------------------------------|-------------------------------------|-------------------------------------|
C#|-2----0---------2----2---------------|-2----0---------2----2---------------|-2----0---------2----2---------------|
G#|-------------------------------------|-------------------------------------|-----------0---------------0----0----|
D#|-----------0---------------0----0----|-----------0---------------0----0----|-------------------------------------|

D#|-------------------------------------|-------------------------------------|-------------------------------------|
A#|-------------------------------------|-------------------------------------|-------------------------------------|
F#|-------------------------------------|-------------------------------------|-------------------------------------|
C#|-2----0---------2----2---------------|-2----0---------2----2---------------|-2----0---------2----2---------------|
G#|-----------0---------------0----0----|-------------------------------------|-------------------------------------|
D#|-------------------------------------|-----------3---------------3----3----|-----------3---------------3----3----|

D#|-------------------------------------|-------------------------------------|-------------------------------------|
A#|-------------------------------------|-------------------------------------|-------------------------------------|
F#|-------------------------------------|-------------------------------------|-------------------------------------|
C#|-2----0---------2----2---------------|-2----0---------2----2---------------|-2----0---------2----2---------------|
G#|-----------0---------------0----0----|-----------0---------------0----0----|-------------------------------------|
D#|-------------------------------------|-------------------------------------|-----------0---------------0----0----|

D#|-------------------------------------|-------------------------------------|-------------------------------------|
A#|-------------------------------------|-------------------------------------|-------------------------------------|
F#|-------------------------------------|-------------------------------------|-------------------------------------|
C#|-2----0---------2----2---------------|-2----0---------2----2---------------|-2----0---------2----2---------------|
G#|-------------------------------------|-----------0---------------0----0----|-----------0---------------0----0----|
D#|-----------0---------------0----0----|-------------------------------------|-------------------------------------|

D#|-------------------------------------|-------------------------------------|-------------------------------------|
A#|-------------------------------------|-------------------------------------|-------------------------------------|
F#|-------------------------------------|-------------------------------------|-2-----------------------------------|
C#|-2----0---------2----2---------------|-2----0---------2----2---------------|------4----0----4----4-----0----0----|
G#|-----------3---------------3----3----|-----------3---------------3----3----|-------------------------------------|
D#|-------------------------------------|-------------------------------------|-------------------------------------|

D#|-------------------------------------|-------------------------------------|-------------------------------------|
A#|-------------------------------------|-------------------------------------|-------------------------------------|
F#|-2-----------------------------------|-------------------------------------|-------------------------------------|
C#|------4----0----4----4-----0----0----|-2----0---------2----2---------------|-2----0---------2----2---------------|
G#|-------------------------------------|-------------------------------------|-------------------------------------|
D#|-------------------------------------|-----------0---------------0----0----|-----------0---------------0----0----|

D#|-------------------------------------|-------------------------------------|-------------------------------------|
A#|-------------------------------------|-------------------------------------|-------------------------------------|
F#|-------------------------------------|-------------------------------------|-------------------------------------|
C#|-2----0---------2----2---------------|-2----0---------2----2---------------|-2----0---------2----2---------------|
G#|-----------0---------------0----0----|-----------0---------------0----0----|-------------------------------------|
D#|-------------------------------------|-------------------------------------|-----------3---------------3----3----|

D#|-------------------------------------|-------------------------------------|-------------------------------------|
A#|-------------------------------------|-------------------------------------|-------------------------------------|
F#|-------------------------------------|-------------------------------------|-------------------------------------|
C#|-2----0---------2----2---------------|-2----0---------2----2---------------|-2----0---------2----2---------------|
G#|-------------------------------------|-----------0---------------0----0----|-----------0---------------0----0----|
D#|-----------3---------------3----3----|-------------------------------------|-------------------------------------|

D#|-------------------------------------|-------------------------------------|-------------------------------------|
A#|-------------------------------------|-------------------------------------|-------------------------------------|
F#|-------------------------------------|-------------------------------------|-------------------------------------|
C#|-2----0---------2----2---------------|-2----0---------2----2---------------|-2----0---------2----2---------------|
G#|-------------------------------------|-------------------------------------|-----------0---------------0----0----|
D#|-----------0---------------0----0----|-----------0---------------0----0----|-------------------------------------|

D#|-------------------------------------|-------------------------------------|-------------------------------------|
A#|-------------------------------------|-------------------------------------|-------------------------------------|
F#|-------------------------------------|-------------------------------------|-------------------------------------|
C#|-2----0---------2----2---------------|-2----0---------2----2---------------|-2----0---------2----2---------------|
G#|-----------0---------------0----0----|-----------3---------------3----3----|-----------3---------------3----3----|
D#|-------------------------------------|-------------------------------------|-------------------------------------|

D#|-------------------------------------|-------------------------------------|-----------------------------------------|
A#|-------------------------------------|-------------------------------------|-----------------------------------------|
F#|-2-----------------------------------|-2-----------------------------------|-----------------------------------------|
C#|------4----0----4----4-----0----0----|------4----0----4----4-----0----0----|-----------------------------------------|
G#|-------------------------------------|-------------------------------------|-----------------------------------------|
D#|-------------------------------------|-------------------------------------|-3----0----0----3----0----0----3----0----|

D#|-----------------------------------------|--------------------|---------|-----------------------------------------|
A#|-----------------------------------------|--------------------|---------|-----------------------------------------|
F#|-----------------------------------------|-------%------%-----|-%-------|-----------------------------------------|
C#|-----------------------------------------|-------%------%-----|-%-------|-----------------------------------------|
G#|-----------------------------------------|-2------------------|---------|-----------------------------------------|
D#|-3----0----0----3----0----0----3----0----|-0------------------|---------|-3----0----0----3----0----0----3----0----|

D#|-----------------------------------------|-----------------------------------------|
A#|-----------------------------------------|-----------------------------------------|
F#|-----------------------------------------|-----------------------------------------|
C#|-----------------------------------------|-----------------------------------------|
G#|-----------------------------------------|-----------------------------------------|
D#|-3----0----0----3----0----0----3----0----|-3----0----0----3----0----0----3----0----|

D#|-----------------------------------------|-------------------------------------|
A#|-----------------------------------------|-------------------------------------|
F#|-----------------------------------------|-2----2----2----0--------------------|
C#|-0----2----2----2----2----0----0----2----|----------------------2----0----2----|
G#|------0----0----0----0--------------0----|-------------------------------------|
D#|-3------------------------3----3---------|-------------------------------------|

D#|-------------------------------------|-------------------------------------|----------------------------------------|
A#|-------------------------------------|-------------------------------------|-------------------------------------0--|
F#|-2----2----2----0--------------------|-2----2----2----0--------------------|-2----2----2----0-----------------------|
C#|----------------------2----0----2----|----------------------2----0----2----|----------------------2----0-----0---2--|
G#|-------------------------------------|-------------------------------------|----------------------------------------|
D#|-------------------------------------|-------------------------------------|-------------------------------------0--|

D#|-------------------------------------------|
A#|-0-----0-----------------------------------|
F#|-----------2--1-----------%------%---%--%--|
C#|-2-----2---0-----4--3--1--%------%---%--%--|
G#|--------------4--2--1----------------------|
D#|-0-----0-----------------------------------|
Metallica - Fuel
Metallica - Fuel.gp3