Metallica - Green Hell

Metallica



Title: Green Hell
Album: Garage Days Re-Revisited (The $5.98 E.P.)
Artist: Metallica
Author: Danzig

Track 1: Rythm Guitar
E|-----------------------------------------|-----------------------------------------|
B|-----------------------------------------|-----------------------------------------|
G|-----------------------------------------|-----------------------------------------|
D|-----------------------------------------|-----------------------------------------|
A|-5----5----5----5----5----5----5----5----|-5----5----5----5----5----5----5----5----|
E|-3----3----3----3----3----3----3----3----|-3----3----3----3----3----3----3----3----|

E|-----------------------------------------|-----------------------------------------|
B|-----------------------------------------|-----------------------------------------|
G|-----------------------------------------|-----------------------------------------|
D|-----------------------------------------|-----------------------------------------|
A|-5----5----5----5----5----5----5----5----|-5----5----5----5----5----5----5----5----|
E|-3----3----3----3----3----3----3----3----|-3----3----3----3----3----3----3----3----|

E|-----------------------------------------|-----------------------------------------|
B|-----------------------------------------|-----------------------------------------|
G|-----------------------------------------|-----------------------------------------|
D|-----------------------------------------|-----------------------------------------|
A|-5----5----5----5----5----5----5----5----|-5----5----5----5----5----5----5----5----|
E|-3----3----3----3----3----3----3----3----|-3----3----3----3----3----3----3----3----|

E|-----------------------------------------|-----------------------------------------|
B|-----------------------------------------|-----------------------------------------|
G|-----------------------------------------|-----------------------------------------|
D|-----------------------------------------|-----------------------------------------|
A|-5----5----5----5----5----5----5----5----|-5----5----5----5----5----5----5----5----|
E|-3----3----3----3----3----3----3----3----|-3----3----3----3----3----3----3----3----|

E|-------------------------|-----------------------------------------|-----------------------------------------|
B|-------------------------|-----------------------------------------|-----------------------------------------|
G|-------------8-----5-----|-----------------------------------------|-----------------------------------------|
D|-8-----5-----8-----5-----|-----------------------------------------|-----------------------------------------|
A|-8-----5-----6-----3-----|-5----5----5----5----5----5----5----5----|-5----5----5----5----5----5----5----5----|
E|-6-----3-----------------|-3----3----3----3----3----3----3----3----|-3----3----3----3----3----3----3----3----|

E|-----------------------------------------|-----------------------------------------|
B|-----------------------------------------|-----------------------------------------|
G|-----------------------------------------|-----------------------------------------|
D|-----------------------------------------|-----------------------------------------|
A|-5----5----5----5----5----5----5----5----|-5----5----5----5----5----5----5----5----|
E|-3----3----3----3----3----3----3----3----|-3----3----3----3----3----3----3----3----|

E|-----------------------------------------|-----------------------------------------|
B|-----------------------------------------|-----------------------------------------|
G|-----------------------------------------|-----------------------------------------|
D|-----------------------------------------|-----------------------------------------|
A|-5----5----5----5----5----5----5----5----|-5----5----5----5----5----5----5----5----|
E|-3----3----3----3----3----3----3----3----|-3----3----3----3----3----3----3----3----|

E|-----------------------------------------|-------------------------|-----------------------------------------|
B|-----------------------------------------|-------------------------|-----------------------------------------|
G|-----------------------------------------|-------------8-----5-----|-----------------------------------------|
D|-----------------------------------------|-8-----5-----8-----5-----|-----------------------------------------|
A|-5----5----5----5----5----5----5----5----|-8-----5-----6-----3-----|-5----5----5----5----5----5----5----5----|
E|-3----3----3----3----3----3----3----3----|-6-----3-----------------|-3----3----3----3----3----3----3----3----|

E|-----------------------------------------|-----------------------------------------|
B|-----------------------------------------|-----------------------------------------|
G|-7----7----7----7----7----7----7----7----|-7----7----7----7----7----7----7----7----|
D|-7----7----7----7----7----7----7----7----|-7----7----7----7----7----7----7----7----|
A|-5----5----5----5----5----5----5----5----|-5----5----5----5----5----5----5----5----|
E|-----------------------------------------|-----------------------------------------|

E|-----------------------------------------|-----------------------------------------|
B|-----------------------------------------|-----------------------------------------|
G|-----------------------------------------|-----------------------------------------|
D|-5--------------5----5-------------------|-----------------------------------------|
A|-5----5----5----5----5----5----5----5----|-5----5----5----5----5----5----5----5----|
E|-3----3----3----3----3----3----3----3----|-3----3----3----3----3----3----3----3----|

E|-----------------------------------------|-----------------------------------------|
B|-----------------------------------------|-----------------------------------------|
G|-----------------------------------------|-----------------------------------------|
D|-2--------------2----2-------------------|-----------------------------------------|
A|-2----2----2----2----2----2----2----2----|-2----2----2----2----2----2----2----2----|
E|-0----0----0----0----0----0----0----0----|-0----0----0----0----0----0----0----0----|

E|-----------------------------------------|-----------------------------------------|
B|-----------------------------------------|-----------------------------------------|
G|-7----7----7----7----7----7----7----7----|-7----7----7----7----7----7----7----7----|
D|-7----7----7----7----7----7----7----7----|-7----7----7----7----7----7----7----7----|
A|-5----5----5----5----5----5----5----5----|-5----5----5----5----5----5----5----5----|
E|-----------------------------------------|-----------------------------------------|

E|-------------------------|-----------------------------------------|-----------------------------------------|
B|-------------------------|-----------------------------------------|-----------------------------------------|
G|-------------8-----5-----|-----------------------------------------|-----------------------------------------|
D|-8-----5-----8-----5-----|-----------------------------------------|-----------------------------------------|
A|-8-----5-----6-----3-----|-5----5----5----5----5----5----5----5----|-5----5----5----5----5----5----5----5----|
E|-6-----3-----------------|-3----3----3----3----3----3----3----3----|-3----3----3----3----3----3----3----3----|

E|-----------------------------------------|-----------------------------------------|
B|-----------------------------------------|-----------------------------------------|
G|-----------------------------------------|-----------------------------------------|
D|-----------------------------------------|-----------------------------------------|
A|-5----5----5----5----5----5----5----5----|-5----5----5----5----5----5----5----5----|
E|-3----3----3----3----3----3----3----3----|-3----3----3----3----3----3----3----3----|

E|-----------------------------------------|-----------------------------------------|
B|-----------------------------------------|-----------------------------------------|
G|-----------------------------------------|-----------------------------------------|
D|-----------------------------------------|-----------------------------------------|
A|-5----5----5----5----5----5----5----5----|-5----5----5----5----5----5----5----5----|
E|-3----3----3----3----3----3----3----3----|-3----3----3----3----3----3----3----3----|

E|-----------------------------------------|-----------------------------------------|
B|-----------------------------------------|-----------------------------------------|
G|-----------------------------------------|-----------------------------------------|
D|-----------------------------------------|-----------------------------------------|
A|-5----5----5----5----5----5----5----5----|-5----5----5----5----5----5----5----5----|
E|-3----3----3----3----3----3----3----3----|-3----3----3----3----3----3----3----3----|

E|-----------------------------------------|-------------------------|-----------------------------------------|
B|-----------------------------------------|-------------------------|-----------------------------------------|
G|-----------------------------------------|-------------8-----5-----|-----------------------------------------|
D|-----------------------------------------|-8-----5-----8-----5-----|-----------------------------------------|
A|-5----5----5----5----5----5----5----5----|-8-----5-----6-----3-----|-5----5----5----5----5----5----5----5----|
E|-3----3----3----3----3----3----3----3----|-6-----3-----------------|-3----3----3----3----3----3----3----3----|

E|-----------------------------------------|-----------------------------------------|
B|-----------------------------------------|-----------------------------------------|
G|-----------------------------------------|-----------------------------------------|
D|-----------------------------------------|-----------------------------------------|
A|-5----5----5----5----5----5----5----5----|-5----5----5----5----5----5----5----5----|
E|-3----3----3----3----3----3----3----3----|-3----3----3----3----3----3----3----3----|

E|-----------------------------------------|-----------------------------------------|
B|-----------------------------------------|-----------------------------------------|
G|-----------------------------------------|-----------------------------------------|
D|-----------------------------------------|-----------------------------------------|
A|-5----5----5----5----5----5----5----5----|-5----5----5----5----5----5----5----5----|
E|-3----3----3----3----3----3----3----3----|-3----3----3----3----3----3----3----3----|

E|-----------------------------------------|-----------------------------------------|
B|-----------------------------------------|-----------------------------------------|
G|-----------------------------------------|-----------------------------------------|
D|-----------------------------------------|-----------------------------------------|
A|-5----5----5----5----5----5----5----5----|-5----5----5----5----5----5----5----5----|
E|-3----3----3----3----3----3----3----3----|-3----3----3----3----3----3----3----3----|

E|-----------------------------------------|-----------------------------------------|
B|-----------------------------------------|-----------------------------------------|
G|-----------------------------------------|-----------------------------------------|
D|-----------------------------------------|-----------------------------------------|
A|-5----5----5----5----5----5----5----5----|-5----5----5----5----5----5----5----5----|
E|-3----3----3----3----3----3----3----3----|-3----3----3----3----3----3----3----3----|

E|-------------------------|-----------------------------------------|-----------------------------------------|
B|-------------------------|-----------------------------------------|-----------------------------------------|
G|-------------8-----5-----|-----------------------------------------|-----------------------------------------|
D|-8-----5-----8-----5-----|-----------------------------------------|-7----7----7----7----7----7----7----7----|
A|-8-----5-----6-----3-----|-5----5----5----5----5----5----5----5----|-5----5----5----5----5----5----5----5----|
E|-6-----3-----------------|-3----3----3----3----3----3----3----3----|-----------------------------------------|

E|-----------------------------------------|-------|---------|---------|---------------|
B|-----------------------------------------|-------|---------|---------|---------------|
G|-----------------------------------------|-------|---------|---------|---------------|
D|-7----7----7----7----7----7----7----7----|-------|---------|---------|-------5-------|
A|-5----5----5----5----5----5----5----5----|-5-----|-5-------|-5-------|-5-----5-------|
E|-----------------------------------------|-3-----|-3-------|-3-------|-3-----3-------|

E|---------|---------|---------|---------|---------|---------|---------|---------|---------|
B|---------|---------|---------|---------|---------|---------|---------|---------|---------|
G|-%-------|-%-------|-%-------|-%-------|-%-------|-%-------|-%-------|-%-------|-%-------|
D|-%-------|-%-------|-%-------|-%-------|-%-------|-%-------|-%-------|-%-------|-%-------|
A|---------|---------|---------|---------|---------|---------|---------|---------|---------|
E|---------|---------|---------|---------|---------|---------|---------|---------|---------|
Metallica - Green Hell
Metallica - Green Hell.gp4