Metallica - Guitar Solo In Memory Of Cliff

Metallica



Title: Metallica - Guitar Solo In Memory Of Cliff (live)
Album: 
Artist: Metallica
Author: 

Track 1: Kirk Hammet
E|------------------------------------------|-----------------------------------------|
B|------------------------------------------|-----------------------------------------|
G|------------------------------------------|-----------------------------------------|
D|-9--10----10----10--10--10--10--9----9----|-9----7----5----5----5----5----5----5----|
A|------------------------------------------|-----------------------------------------|
E|------------------------------------------|-----------------------------------------|

E|------------------------------------|----------------------------------|----------------------------------------|
B|------------------------------------|----------------------------------|----------------------------------------|
G|------------------------------------|----------------------------------|-----------------------------------4----|
D|-5---5---7-----7-----7----10---10---|-10----10---12---12----12----9----|-5----5----5-----5----5---5---5---------|
A|------------------------------------|----------------------------------|----------------------------------------|
E|------------------------------------|----------------------------------|----------------------------------------|

E|-------------------------------------|---------------------------------|----------------------------------------|
B|-------------------------------------|---------------------------------|----------------------------------------|
G|-------------------------4-----5-----|-5-----5-----5---4----4----------|----------------------------------------|
D|-5-----5----5---5---5----------7-----|-7-----7-----7--------------7----|-5----5----5----5-----5----5---5---7----|
A|-------------------------------------|---------------------------------|-7----7----7----7-----7----7---7--------|
E|-------------------------------------|---------------------------------|----------------------------------------|

E|---------------|----------------------------------|----------------------------------------|
B|---------------|----------------------------------|----------------------------------------|
G|---------------|----------------------------------|-----------------------------4----------|
D|-7------10-----|-10---12---12----12----9----5-----|-5---5-----5----5---5---5----5----5-----|
A|--------12-----|----------------------------------|-----7-----7----7---7---7---------7-----|
E|---------------|----------------------------------|----------------------------------------|

E|-------------------------------------|-------------------------------------|------------------------------------|
B|-------------------------------------|-------------------------------------|------------------------------------|
G|--------------------4-----5-----5----|-5----5-----5---4----4---------------|------------------------------------|
D|-5-----5---5---5----------7----------|-7----7-----7--------------7----5----|-5----5----5-----5----5---5---7-----|
A|-7-----7---7---7---------------------|--------------------------------7----|-7----7----7-----7----7---7---------|
E|-------------------------------------|-------------------------------------|------------------------------------|

E|---------------|----------------------------------|----------------------------------------|
B|---------------|----------------------------------|----------------------------------------|
G|---------------|----------------------------------|-----------------------------4----------|
D|-7------10-----|-10---12---12----12----9----5-----|-5---5-----5----5---5---5----5----5-----|
A|--------12-----|----------------------------------|-----7-----7----7---7---7---------7-----|
E|---------------|----------------------------------|----------------------------------------|

E|----------------------------------------|----------------------------------------|
B|----------------------------------------|---------------1---------------1--------|
G|--------------------4----2--------------|-----2--------------2-----2---------2---|
D|-5-----5---5---5----5---------2-----2---|-2--------2-----------------------------|
A|-7-----7---7---7------------------------|----------------------------------------|
E|----------------------------------------|----------------------------------------|

E|-----0---------------0---------------|------------------------------------|--------------------------------------------|
B|----------1-----1----0----1----3-----|-3----------------------------------|---------------------------------------1----|
G|-2------------------------2----4-----|-4-----4---4---4----5----5---7------|-7---7---7----9----5----2----2----2---------|
D|-------------------------------------|-------5---5---5----7----7---9------|-9---9---9----10---7------------------------|
A|-------------------------------------|------------------------------------|--------------------------------------------|
E|-------------------------------------|------------------------------------|--------------------------------------------|

E|------0-------------------0---------5----|-0----0---------0---------------------|
B|-----------1----1----1---------1---------|-----------1----0----1----3-----3-----|
G|-2---------------------------------------|---------------------2----4-----4-----|
D|-----------------------------------------|--------------------------------------|
A|-----------------------------------------|--------------------------------------|
E|-----------------------------------------|--------------------------------------|

E|-----------------------------------------------|-----------------------------------------|
B|-----------------------------------------------|------------------------------------3----|
G|-4---4---4----5----5---7-----7----7---7---7----|-9------------------------4--------------|
D|-5---5---5----7----7---9-----9----9---9---9----|-10---9----4----4----4---------4---------|
A|-----------------------------------------------|-----------------------------------------|
E|-----------------------------------------------|-----------------------------------------|

E|--------------------------2--------------|------2---------0----0------------------|
B|----------------3--------------3----3----|-3----3----3----0----0-----2---2---2----|
G|-4----4----4---------4-------------------|-4---------4----------------------------|
D|-----------------------------------------|----------------------------------------|
A|-----------------------------------------|----------------------------------------|
E|-----------------------------------------|----------------------------------------|

E|-----------------------------------------------|----------------------2--------------|
B|-3----3---5----5----5---5---5----7----3----0---|-0----------3--------------3----3----|
G|-----------------------------------------------|-------4---------4-------------------|
D|-----------------------------------------------|-------------------------------------|
A|-----------------------------------------------|-------------------------------------|
E|-----------------------------------------------|-------------------------------------|

E|-----------------------------------------|------------------------|---------|
B|------3----------------------------------|------------------------|---------|
G|-4---------4-----------------------------|------------------------|-%-------|
D|----------------4----0----0---------4----|------------------------|-%-------|
A|-------------------------------5---------|-5----------------------|---------|
E|-----------------------------------------|------7----2------2-----|---------|
Metallica - Guitar Solo In Memory Of Cliff
Metallica - Guitar Solo In Memory Of Cliff.gp4