Metallica - Harvester Of Sorrow (3)

Metallica



Title: Harvester Of Sorrow
Album: ...And Justice For All
Artist: Metallica
Author: 

Track 1: Rythm Guitar
E|----------------------------------------|----------------------------------------|
B|----------------------------------------|----------------------------------------|
G|-%--------------------------------------|----------------------------------------|
D|-%------------------4---3---2-----------|-2------------------4---3---2-----------|
A|--------5---4---2---2---1---0---5---4---|-2------5---4---2---2---1---0---5---4---|
E|--------3---2---0---------------3---2---|-0------3---2---0---------------3---2---|

E|---------|---------|---------|---------|---------|---------|---------|----------------------------------------|
B|---------|---------|---------|---------|---------|---------|---------|----------------------------------------|
G|---------|---------|---------|---------|-%-------|-%-------|-%-------|-%--------------------------------------|
D|-2-------|-2-------|-2-------|-2-------|-%-------|-%-------|-%-------|-%------------------4---3---2-----------|
A|-2-------|-2-------|-2-------|-2-------|---------|---------|---------|--------5---4---2---2---1---0---5---4---|
E|-0-------|-0-------|-0-------|-0-------|---------|---------|---------|--------3---2---0---------------3---2---|

E|-----------------------------------------------------------|-----------------------------------------------------------|
B|-----------------------------------------------------------|-----------------------------------------------------------|
G|-----------------------------------------------------------|-----------------------------------------------------------|
D|---------------------------------------4---3---------------|---------------------------------------4---3---------------|
A|-2----2---2---2----2---2---5---4-------2---1---0---5---4---|-3----3---3---3----3---3---5---4-------2---1---0---5---4---|
E|-0----0---0---0----0---0---3---2---0---------------3---2---|-1----1---1---1----1---1---3---2---0---------------3---2---|

E|-----------------------------------------------------------|-----------------------------------------------------------|
B|-----------------------------------------------------------|-----------------------------------------------------------|
G|-----------------------------------------------------------|-----------------------------------------------------------|
D|---------------------------------------4---3---------------|---------------------------------------2---2---2-----------|
A|-2----2---2---2----2---2---5---4-------2---1---0---5---4---|-3----3---3---3----3---3---5---4-------0---0---0---5---4---|
E|-0----0---0---0----0---0---3---2---0---------------3---2---|-1----1---1---1----1---1---3---2---0---------------3---2---|

E|---------|---------|---------|---------|---------|---------|----------------------|
B|---------|---------|---------|---------|---------|---------|----------------------|
G|---------|---------|-%-------|-%-------|-%-------|-%-------|-%-------%------------|
D|-2-------|-2-------|-%-------|-%-------|-%-------|-%-------|-%-------%------------|
A|-2-------|-2-------|---------|---------|---------|---------|----------------------|
E|-0-------|-0-------|---------|---------|---------|---------|--------------0---1---|

E|--------------------------------------------|--------------------------------------------|
B|----------------0---------0----0------------|----------------0---------0----0------------|
G|----------------1----%----1----1------------|----------------1----%----1----1------------|
D|----------------2----%----2----2------------|----------------2----%----2----2------------|
A|------1---------2---------2----2------------|------1---------2---------2----2------------|
E|-2---------0----0---------0----0----0---1---|-2---------0----0---------0----0----0---1---|

E|--------------------------------------------|--------------------------------------------|
B|----------------0---------0----0------------|--------------------------------------------|
G|----------------1----%----1----1------------|----------------4----%----4----4------------|
D|----------------2----%----2----2------------|------0---------5----%----5----5------------|
A|------1---------2---------2----2------------|-----------5----5---------5----5------------|
E|-2---------0----0---------0----0----0---1---|-2---------3----3---------3----3----0---1---|

E|--------------------------------------------|--------------------------------------------|
B|----------------0---------0----0------------|--------------------------------------------|
G|----------------1----%----1----1------------|----------------4----%----4----4------------|
D|----------------2----%----2----2------------|------0---------5----%----5----5------------|
A|------1---------2---------2----2------------|-----------5----5---------5----5------------|
E|-2---------0----0---------0----0----0---1---|-2---------3----3---------3----3----0---1---|

E|--------------------------------------------|--------------------------------------------|
B|------0---------0---------0----0------------|------0---------0---------0----0------------|
G|------1----%----1----%----1----1------------|------1----%----1----%----1----1------------|
D|------2----%----2----%----2----2------------|------2----%----2----%----2----2------------|
A|------2---------2---------2----2------------|------2---------2---------2----2------------|
E|-2----0---------0---------0----0----0---1---|-2----0---------0---------0----0----0---1---|

E|--------------------------------------------|--------------------------------------------|
B|------0---------0---------0----0------------|------3---------3---------3----3------------|
G|------1----%----1----%----1----1------------|------4----%----4----%----4----4------------|
D|------2----%----2----%----2----2------------|------5----%----5----%----5----5------------|
A|------2---------2---------2----2------------|------5---------5---------5----5------------|
E|-2----0---------0---------0----0----0---1---|-2----3---------3---------3----3----0---1---|

E|-----------------------------------------------------|--------------------------------------------|
B|------0----------------------0---0---0---------------|------0---------0---------0----0------------|
G|------1----%-----------------1---1---1---%-----------|------1----%----1----%----1----1------------|
D|------2----%-----------------2---2---2---%-----------|------2----%----2----%----2----2------------|
A|------2----------------------2---2---2---------------|------2---------2---------2----2------------|
E|-2----0---------0---1---2----0---0---0-------0---1---|-2----0---------0---------0----0----0---1---|

E|--------------------------------------------|--------------------------------------------|
B|------0---------0---------0----0------------|------3---------3---------3----3------------|
G|------1----%----1----%----1----1------------|------4----%----4----%----4----4------------|
D|------2----%----2----%----2----2------------|------5----%----5----%----5----5------------|
A|------2---------2---------2----2------------|------5---------5---------5----5------------|
E|-2----0---------0---------0----0----0---1---|-2----3---------3---------3----3----0---1---|

E|---------|---------|-----------------------------------------------|--------------------------------------------|
B|---------|---------|------0----------------------0-----------------|------0---------0---------0----0------------|
G|---------|---------|------1----%-----------------1----%------------|------1----%----1----%----1----1------------|
D|-2-------|-2-------|------2----%-----------------2----%------------|------2----%----2----%----2----2------------|
A|-2-------|-2-------|------2----------------------2-----------------|------2---------2---------2----2------------|
E|-0-------|-0-------|-2----0---------0---1---2----0---------0---1---|-2----0---------0---------0----0----0---1---|

E|---------|---------|-----------------------------------------------------------|-----------------------------------------------------------|
B|---------|---------|-----------------------------------------------------------|-----------------------------------------------------------|
G|---------|---------|-----------------------------------------------------------|-----------------------------------------------------------|
D|-2-------|-2-------|---------------------------------------4---3---------------|---------------------------------------4---3---------------|
A|-2-------|-2-------|-2----2---2---2----2---2---5---4-------2---1---0---5---4---|-3----3---3---3----3---3---5---4-------2---1---0---5---4---|
E|-0-------|-0-------|-0----0---0---0----0---0---3---2---0---------------3---2---|-1----1---1---1----1---1---3---2---0---------------3---2---|

E|-----------------------------------------------------------|-----------------------------------------------------------|
B|-----------------------------------------------------------|-----------------------------------------------------------|
G|-----------------------------------------------------------|-----------------------------------------------------------|
D|---------------------------------------4---3---------------|---------------------------------------4---3---------------|
A|-2----2---2---2----2---2---5---4-------2---1---0---5---4---|-3----3---3---3----3---3---5---4-------2---1---0---5---4---|
E|-0----0---0---0----0---0---3---2---0---------------3---2---|-1----1---1---1----1---1---3---2---0---------------3---2---|

E|-----------------------------------------------------------|-----------------------------------------------------------|
B|-----------------------------------------------------------|-----------------------------------------------------------|
G|-----------------------------------------------------------|-----------------------------------------------------------|
D|---------------------------------------4---3---------------|---------------------------------------2---2---2-----------|
A|-2----2---2---2----2---2---5---4-------2---1---0---5---4---|-3----3---3---3----3---3---5---4-------0---0---0---5---4---|
E|-0----0---0---0----0---0---3---2---0---------------3---2---|-1----1---1---1----1---1---3---2---0---------------3---2---|

E|---------|-------------------------|--------------------------------------------|
B|---------|-------------------------|----------------0---------0----0------------|
G|---------|-%-----------%-----------|----------------1----%----1----1------------|
D|-2-------|-%-----------%-----------|----------------2----%----2----2------------|
A|-2-------|-------------------------|------1---------2---------2----2------------|
E|-0-------|---------1-------0---1---|-2---------0----0---------0----0----0---1---|

E|--------------------------------------------|--------------------------------------------|
B|----------------0---------0----0------------|----------------0---------0----0------------|
G|----------------1----%----1----1------------|----------------1----%----1----1------------|
D|----------------2----%----2----2------------|----------------2----%----2----2------------|
A|------1---------2---------2----2------------|------1---------2---------2----2------------|
E|-2---------0----0---------0----0----0---1---|-2---------0----0---------0----0----0---1---|

E|--------------------------------------------|--------------------------------------------|
B|--------------------------------------------|------0---------0---------0----0------------|
G|----------------4----%----4----4------------|------1----%----1----%----1----1------------|
D|------0---------5----%----5----5------------|------2----%----2----%----2----2------------|
A|-----------5----5---------5----5------------|------2---------2---------2----2------------|
E|-2---------3----3---------3----3----0---1---|-2----0---------0---------0----0----0---1---|

E|--------------------------------------------|--------------------------------------------|
B|------0---------0---------0----0------------|------0---------0---------0----0------------|
G|------1----%----1----%----1----1------------|------1----%----1----%----1----1------------|
D|------2----%----2----%----2----2------------|------2----%----2----%----2----2------------|
A|------2---------2---------2----2------------|------2---------2---------2----2------------|
E|-2----0---------0---------0----0----0---1---|-2----0---------0---------0----0----0---1---|

E|--------------------------------------------|-----------------------------------------------------|
B|------3---------3---------3----3------------|------0----------------------0---0---0---------------|
G|------4----%----4----%----4----4------------|------1----%-----------------1---1---1---%-----------|
D|------5----%----5----%----5----5------------|------2----%-----------------2---2---2---%-----------|
A|------5---------5---------5----5------------|------2----------------------2---2---2---------------|
E|-2----3---------3---------3----3----0---1---|-2----0---------0---1---2----0---0---0-------0---1---|

E|--------------------------------------------|--------------------------------------------|
B|------0---------0---------0----0------------|------0---------0---------0----0------------|
G|------1----%----1----%----1----1------------|------1----%----1----%----1----1------------|
D|------2----%----2----%----2----2------------|------2----%----2----%----2----2------------|
A|------2---------2---------2----2------------|------2---------2---------2----2------------|
E|-2----0---------0---------0----0----0---1---|-2----0---------0---------0----0----0---1---|

E|--------------------------------------------|---------|---------|-----------------------------------------------|
B|------3---------3---------3----3------------|---------|---------|------0----------------------0-----------------|
G|------4----%----4----%----4----4------------|---------|---------|------1----%-----------------1----%------------|
D|------5----%----5----%----5----5------------|-2-------|-2-------|------2----%-----------------2----%------------|
A|------5---------5---------5----5------------|-2-------|-2-------|------2----------------------2-----------------|
E|-2----3---------3---------3----3----0---1---|-0-------|-0-------|-2----0---------0---1---2----0---------0---1---|

E|--------------------------------------------|---------|---------|-----------------------------------------------------------|
B|------0---------0---------0----0------------|---------|---------|-----------------------------------------------------------|
G|------1----%----1----%----1----1------------|---------|---------|-----------------------------------------------------------|
D|------2----%----2----%----2----2------------|-2-------|-2-------|---------------------------------------4---3---------------|
A|------2---------2---------2----2------------|-2-------|-2-------|-2----2---2---2----2---2---5---4-------2---1---0---5---4---|
E|-2----0---------0---------0----0----0---1---|-0-------|-0-------|-0----0---0---0----0---0---3---2---0---------------3---2---|

E|-----------------------------------------------------------|-----------------------------------------------------------|
B|-----------------------------------------------------------|-----------------------------------------------------------|
G|-----------------------------------------------------------|-----------------------------------------------------------|
D|---------------------------------------4---3---------------|---------------------------------------4---3---------------|
A|-3----3---3---3----3---3---5---4-------2---1---0---5---4---|-2----2---2---2----2---2---5---4-------2---1---0---5---4---|
E|-1----1---1---1----1---1---3---2---0---------------3---2---|-0----0---0---0----0---0---3---2---0---------------3---2---|

E|-----------------------------------------------------------|-----------------------------------------------------------|
B|-----------------------------------------------------------|-----------------------------------------------------------|
G|-----------------------------------------------------------|-----------------------------------------------------------|
D|---------------------------------------4---3---------------|---------------------------------------4---3---------------|
A|-3----3---3---3----3---3---5---4-------2---1---0---5---4---|-2----2---2---2----2---2---5---4-------2---1---0---5---4---|
E|-1----1---1---1----1---1---3---2---0---------------3---2---|-0----0---0---0----0---0---3---2---0---------------3---2---|

E|-----------------------------------------------------------|---------|---------|---------|
B|-----------------------------------------------------------|---------|---------|---------|
G|-----------------------------------------------------------|---------|---------|---------|
D|---------------------------------------2---2---2-----------|-2-------|-2-------|-2-------|
A|-3----3---3---3----3---3---5---4-------0---0---0---5---4---|-2-------|-2-------|-2-------|
E|-1----1---1---1----1---1---3---2---0---------------3---2---|-0-------|-0-------|-0-------|

E|-------------------------|-----------------------------------------------|--------------------------------------------|
B|-------------------------|------0----------------------0-----------------|------0---------0---------0----0------------|
G|-------------%-----------|------1----%-----------------1----%------------|------1----%----1----%----1----1------------|
D|-2-----------%-----------|------2----%-----------------2----%------------|------2----%----2----%----2----2------------|
A|-2-----------------------|------2----------------------2-----------------|------2---------2---------2----2------------|
E|-0-------1-------0---1---|-2----0---------0---1---2----0---------0---1---|-2----0---------0---------0----0----0---1---|

E|-----------------------------------------------|--------------------------------------------|
B|------0----------------------0-----------------|------3---------3---------3----3------------|
G|------1----%-----------------1----%------------|------4----%----4----%----4----4------------|
D|------2----%-----------------2----%------------|------5----%----5----%----5----5------------|
A|------2----------------------2-----------------|------5---------5---------5----5------------|
E|-2----0---------0---1---2----0---------0---1---|-2----3---------3---------3----3----0---1---|

E|-----------------------------------------------|--------------------------------------------|
B|------0----------------------0-----------------|------0---------0---------0----0------------|
G|------1----%-----------------1----%------------|------1----%----1----%----1----1------------|
D|------2----%-----------------2----%------------|------2----%----2----%----2----2------------|
A|------2----------------------2-----------------|------2---------2---------2----2------------|
E|-2----0---------0---1---2----0---------0---1---|-2----0---------0---------0----0----0---1---|

E|----------------------|----------------------|----------------------|--------------------------------------------|
B|----------------------|----------------------|----------------------|------0---------0---------0----0------------|
G|----------------------|----------------------|----------------------|------1----%----1----%----1----1------------|
D|----------------------|-2-------2------------|----------------------|------2----%----2----%----2----2------------|
A|------0---------------|-2-------2------------|------1---------------|------2---------2---------2----2------------|
E|-2------------2---1---|-0-------0----0---1---|-2------------0---1---|-2----0---------0---------0----0----0---1---|

E|----------------------------------------------------|-----------------------------------------------------------|
B|----------------------------------------------------|-----------------------------------------------------------|
G|-------------------------------------------2---3----|-----------------------------------------------------------|
D|-2-------------------0----2----3---3---5------------|---------------------------------------4---3---------------|
A|-2----0--1--0---3-----------------------------------|-2----2---2---2----2---2---5---4-------2---1---0---5---4---|
E|-0--------------------------------------------------|-0----0---0---0----0---0---3---2---0---------------3---2---|

E|----------------------------------------------------|-----------------------------------------------------------|
B|----------------------------------------------------|-----------------------------------------------------------|
G|-------------------------------------------2---3----|-----------------------------------------------------------|
D|-2-------------------0----2----3---3---5------------|---------------------------------------4---3---------------|
A|-2----0--1--0---3-----------------------------------|-3----3---3---3----3---3---5---4-------2---1---0---5---4---|
E|-0--------------------------------------------------|-1----1---1---1----1---1---3---2---0---------------3---2---|

E|---------------------------------------------------------------|---------------------------------------------------------------|
B|---------------------------------------------------------------|---------------------------------------------------------------|
G|-3--2--0---2---3---2---0---------------------------------------|-3--2--0---2---3---2---0---------------------------------------|
D|-3--2--0---2---3---2---0---3--2--0-----------------------------|-3--2--0---2---3---2---0---3--2--0-----------------------------|
A|---------------------------3--2--0-----------------------------|---------------------------3--2--0---3----3---3---3----3-------|
E|-------------------------------------0----0---0---0----0---0---|-------------------------------------1----1---1---1----1---0---|

E|---------------------------------------------------------------|------------------------------------------------------------|
B|---------------------------------------------------------------|------------------------------------------------------------|
G|-3--2--0---2---3---2---0---------------------------------------|-3--2--0---2---3---5---3---3--2--0---0----------------------|
D|-3--2--0---2---3---2---0---3--2--0-----------------------------|-3--2--0---2---3---5---3---3--2--0---0----3------------3----|
A|---------------------------3--2--0-----------------------------|------------------------------------------3------------3----|
E|-------------------------------------0----0---0---0----0---0---|------------------------------------------1----1---1---1----|

E|---------|---------|------------------------|--------|------------------------|-------|
B|---------|---------|------------------------|--------|------------------------|-------|
G|---------|---------|------------------------|-%------|-%----------------------|-%-----|
D|-2-------|-2-------|-----3------------3-----|-%------|-%---3------------3-----|-%-----|
A|-2-------|-2-------|-----3------------3-----|--------|-----3------------3-----|-------|
E|-0-------|-0-------|-1---1----1---1---1-----|--------|-----1----1---1---1-----|-------|

E|-------------------------------------------|--------------------------------------------|
B|-------0----0---------0---0---0------------|------0---------0---------0----0------------|
G|-%-----1----1----%----1---1---1------------|------1----%----1----%----1----1------------|
D|-%-----2----2----%----2---2---2------------|------2----%----2----%----2----2------------|
A|-------2----2---------2---2---2------------|------2---------2---------2----2------------|
E|-------0----0---------0---0---0----0---1---|-2----0---------0---------0----0----0---1---|

E|--------------------------------------------|--------------------------------------------|
B|------0---------0---------0----0------------|------3---------3---------3----3------------|
G|------1----%----1----%----1----1------------|------4----%----4----%----4----4------------|
D|------2----%----2----%----2----2------------|------5----%----5----%----5----5------------|
A|------2---------2---------2----2------------|------5---------5---------5----5------------|
E|-2----0---------0---------0----0----0---1---|-2----3---------3---------3----3----0---1---|

E|---------|---------|-----------------------------------------------------------|-----------------------------------------------------------|
B|---------|---------|-----------------------------------------------------------|-----------------------------------------------------------|
G|---------|---------|-----------------------------------------------------------|-----------------------------------------------------------|
D|-2-------|-2-------|---------------------------------------4---3---------------|---------------------------------------4---3---------------|
A|-2-------|-2-------|-2----2---2---2----2---2---5---4-------2---1---0---5---4---|-3----3---3---3----3---3---5---4-------2---1---0---5---4---|
E|-0-------|-0-------|-0----0---0---0----0---0---3---2---0---------------3---2---|-1----1---1---1----1---1---3---2---0---------------3---2---|

E|-----------------------------------------------------------|-----------------------------------------------------------|
B|-----------------------------------------------------------|-----------------------------------------------------------|
G|-----------------------------------------------------------|-----------------------------------------------------------|
D|---------------------------------------4---3---------------|---------------------------------------4---3---------------|
A|-2----2---2---2----2---2---5---4-------2---1---0---5---4---|-3----3---3---3----3---3---5---4-------2---1---0---5---4---|
E|-0----0---0---0----0---0---3---2---0---------------3---2---|-1----1---1---1----1---1---3---2---0---------------3---2---|

E|-----------------------------------------------------------|-----------------------------------------------------------|
B|-----------------------------------------------------------|-----------------------------------------------------------|
G|-----------------------------------------------------------|-----------------------------------------------------------|
D|---------------------------------------4---3---------------|---------------------------------------4---3---------------|
A|-2----2---2---2----2---2---5---4-------2---1---0---5---4---|-3----3---3---3----3---3---5---4-------2---1---0---5---4---|
E|-0----0---0---0----0---0---3---2---0---------------3---2---|-1----1---1---1----1---1---3---2---0---------------3---2---|

E|---------|
B|---------|
G|---------|
D|-2-------|
A|-2-------|
E|-0-------|
Metallica - Harvester Of Sorrow (3)
Metallica - Harvester Of Sorrow (3).gp3