Metallica - Harvester of Sorrow (4)

Metallica - Harvester of Sorrow (4)

Metallica



Title: Solo from Harvester of Sorrow
Album: 
Artist: MetallicA
Author: Kirk Hammet

Track 1: Kirk Hammett
E|------------------------------------|-----------------------------------------------------|
B|-15----15----15---15----15--15--15--|-15--15--15--15--17--17-----15---15---15---15--------|
G|------------------------------------|-------------------------%----------------------14---|
D|------------------------------------|-------------------------%---------------------------|
A|------------------------------------|-----------------------------------------------------|
E|------------------------------------|-----------------------------------------------------|

E|-17----17----17----15-14----14---------------------------------|---------------------------------------------------------------------------|
B|-------------------------17----17--17-15-14-15-14-12-----------|-------------------------------------------------------14--15--------------|
G|----------------%------------------------------------18-16-14--|-16--16--14--16--16--14--16--16--14--16--16--14--16------------16--16--14--|
D|----------------%----------------------------------------------|---------------------------------------------------------------------------|
A|---------------------------------------------------------------|---------------------------------------------------------------------------|
E|---------------------------------------------------------------|---------------------------------------------------------------------------|

E|----------------------------------------------------------------------|---------------------14-15-19----19----17---15---|
B|----------------------------------------------12--12----0-------------|---------14--15--17------------------------------|
G|-14--16--14--16--14--16---16--14--18--16--14--12--12-%--X---14---14---|-14--16------------------------------------------|
D|-------------16-------------------------------X------%----------------|-------------------------------------------------|
A|-------------X--------------------------------------------------------|-------------------------------------------------|
E|----------------------------------------------------------------------|-------------------------------------------------|

E|-15--17--15--14---14----14---14--15--14--------|--------------------------------------|
B|------------------------------------------15---|-17----17----17----17---X--14-17--17--|
G|-----------------------------------------------|--------------------------------------|
D|-----------------------------------------------|--------------------------------------|
A|-----------------------------------------------|--------------------------------------|
E|-----------------------------------------------|--------------------------------------|

E|---------------------------------------------------------------------|---------12-------12------12------12------14--22----|
B|-17--15--15--15--15--14--14--14--14--15--14------14--12----------12--|-----12------15-------15------15------15------------|
G|---------------------------------------------16------12--12--14------|-14-------------------------------------------------|
D|-----------------------------------------------------X---------------|----------------------------------------------------|
A|---------------------------------------------------------------------|----------------------------------------------------|
E|---------------------------------------------------------------------|----------------------------------------------------|
Metallica - Harvester of Sorrow (4)
Metallica - Harvester of Sorrow (4).gp3