Metallica - Hero Of The Day (Live)

Metallica - Hero Of The Day (Live)

Metallica



Title: Hero Of The Day
Album: Load
Artist: Metallica
Author: Metallica

Track 1: Rhythm Guitars
D#|----------------------------|---------------------------------|---------------------------------|
A#|----------------------------|---------------------------------|---------------------------------|
F#|-%------%-------------------|-----------2---------------2-----|-----------2---------------2-----|
C#|-%------%-------------------|------2---------------2----------|------2---------------2----------|
G#|------------------0---------|-0---------------2---------------|-4---------------5---------------|
D#|-------------2---------2----|---------------------------------|---------------------------------|

D#|-----------------------------------------|-----------------------------------------|
A#|-----------------------------------------|-----------------------------------------|
F#|-----------4-------------------4---------|-----------4-----------------------------|
C#|------6---------6----6--------------6----|-6--------------6----6-------------------|
G#|-7------------------------7--------------|------7------------------------0---------|
D#|-----------------------------------------|--------------------------2---------2----|

D#|---------------------------------|---------------------------------|-----------------------------------------|
A#|---------------------------------|---------------------------------|-----------------------------------------|
F#|-----------2---------------2-----|-----------2---------------2-----|-4--------------4----4--------------4----|
C#|------2---------------2----------|------2---------------2----------|-4----6-------------------6--------------|
G#|-0---------------2---------------|-4---------------5---------------|-7---------7-------------------7---------|
D#|---------------------------------|---------------------------------|-----------------------------------------|

D#|------------------------------------------------|---------------------------------|
A#|------------------------------------------------|---------------------------------|
F#|-4--------------4----4---6---4------------------|-----------2---------------2-----|
C#|------6--------------------------6----6----7----|------2---------------2----------|
G#|-----------7------------------------------------|-0---------------2---------------|
D#|------------------------------------------------|---------------------------------|

D#|---------------------------------|-----------------------------------------|-----------------------------------------|
A#|---------------------------------|-----------------------------------------|-----------------------------------------|
F#|-----------2---------------2-----|-----------4-------------------4---------|-----------4-----------------------------|
C#|------2---------------2----------|------6---------6----6--------------6----|-6--------------6----6-------------------|
G#|-4---------------5---------------|-7------------------------7--------------|------7------------------------0---------|
D#|---------------------------------|-----------------------------------------|--------------------------2---------2----|

D#|---------------------------------|---------------------------------|-----------------------------------------|
A#|---------------------------------|---------------------------------|-----------------------------------------|
F#|-----------2---------------2-----|-----------2---------------2-----|-4--------------4----4--------------4----|
C#|------2---------------2----------|------2---------------2----------|-4----6-------------------6--------------|
G#|-0---------------2---------------|-4---------------5---------------|-7---------7-------------------7---------|
D#|---------------------------------|---------------------------------|-----------------------------------------|

D#|-------------------------------------|---------------------------------|---------------------------------|
A#|-------------------------------------|---------------------------------|---------------------------------|
F#|-%---------4----6----6----4----------|-----------2---------------2-----|-----------2---------------2-----|
C#|-%---------6---------6---------6-----|------2---------------2----------|------2---------------2----------|
G#|------7------------------------------|-0---------------2---------------|-4---------------5---------------|
D#|-------------------------------------|---------------------------------|---------------------------------|

D#|-----------------------------------------|-----------------------------------------|
A#|-----------------------------------------|-----------------------------------------|
F#|---------------------%---------%---------|-----------------------------------------|
C#|-4----6----6----6----%----6----%----4----|-4----6----6----6----6-------------------|
G#|-7---------7----7---------7---------7----|-7---------7----7----7---------0---------|
D#|-0---------0----0---------0---------0----|-0---------0----0----0----2---------2----|

D#|---------------------------------|---------------------------------|-----------------------------------------|
A#|---------------------------------|---------------------------------|-----------------------------------------|
F#|-----------2---------------2-----|-----------2---------------2-----|---------------------%---------%---------|
C#|------2---------------2----------|------2---------------2----------|-4----6----6----6----%----6----%----4----|
G#|-0---------------2---------------|-4---------------5---------------|-7---------7----7---------7---------7----|
D#|---------------------------------|---------------------------------|-0---------0----0---------0---------0----|

D#|--------------------------------------------|-------------------------|-------------------------|
A#|--------------------------------------------|-------------------------|-------------------------|
F#|-----------4----4----4----6---6---6----4----|-------2-----------2-----|-------2-----------2-----|
C#|-4----6----6----6----6----6---6---6----4----|-------2-----------2-----|-------2-----------2-----|
G#|-7------------------------------------------|-0-----------2-----------|-4-----------5-----------|
D#|-0------------------------------------------|-------------------------|-------------------------|

D#|-----------------------------------------|-------------------------------------|
A#|-----------------------------------------|-------------------------------------|
F#|-7----9----9----9----9----9----9----9----|-11---13---13---13---13---14---14----|
C#|-----------------------------------------|-------------------------------------|
G#|-5----7----7----7----7----7----7----7----|-9----11---11---11---11---12---12----|
D#|-----------------------------------------|-------------------------------------|

D#|-------------------------|-------------------------|-----------------------------------------|
A#|-------------------------|-------------------------|-----------------------------------------|
F#|-------2-----------2-----|-------2-----------2-----|-7----9----9----9----9----9----9----9----|
C#|-------2-----------2-----|-------2-----------2-----|-----------------------------------------|
G#|-0-----------2-----------|-4-----------5-----------|-5----7----7----7----7----7----7----7----|
D#|-------------------------|-------------------------|-----------------------------------------|

D#|-------------------------------------|---------------------------------|---------------------------------|
A#|-------------------------------------|---------------------------------|---------------------------------|
F#|-11---13---13---13---13---14---14----|-----------2---------------2-----|-----------2---------------2-----|
C#|-------------------------------------|------2---------------2----------|------2---------------2----------|
G#|-9----11---11---11---11---12---12----|-0---------------2---------------|-4---------------5---------------|
D#|-------------------------------------|---------------------------------|---------------------------------|

D#|-----------------------------------------|-----------------------------------------|
A#|-----------------------------------------|-----------------------------------------|
F#|-----------4-------------------4---------|-----------4-----------------------------|
C#|------6---------6----6--------------6----|-6--------------6----6-------------------|
G#|-7------------------------7--------------|------7------------------------0---------|
D#|-----------------------------------------|--------------------------2---------2----|

D#|---------------------------------|---------------------------------|-----------------------------------------|
A#|---------------------------------|---------------------------------|-----------------------------------------|
F#|-----------2---------------2-----|-----------2---------------2-----|-4--------------4----4--------------4----|
C#|------2---------------2----------|------2---------------2----------|-4----6-------------------6--------------|
G#|-0---------------2---------------|-4---------------5---------------|-7---------7-------------------7---------|
D#|---------------------------------|---------------------------------|-----------------------------------------|

D#|-----------------------------------------|---------------------------------|---------------------------------|
A#|-----------------------------------------|---------------------------------|---------------------------------|
F#|-4---------4-------------------4----6----|-----------2---------------2-----|-----------2---------------2-----|
C#|----------------6----6---------6---------|------2---------------2----------|------2---------------2----------|
G#|------7-------------------7--------------|-0---------------2---------------|-4---------------5---------------|
D#|-----------------------------------------|---------------------------------|---------------------------------|

D#|-----------------------------------------|-----------------------------------------|
A#|-----------------------------------------|-----------------------------------------|
F#|-----------4-------------------4---------|-----------4-----------------------------|
C#|------6---------6----6--------------6----|-6--------------6----6-------------------|
G#|-7------------------------7--------------|------7------------------------0---------|
D#|-----------------------------------------|--------------------------2---------2----|

D#|---------------------------------|---------------------------------|-----------------------------------------|
A#|---------------------------------|---------------------------------|-----------------------------------------|
F#|-----------2---------------2-----|-----------2---------------2-----|-4--------------4----4--------------4----|
C#|------2---------------2----------|------2---------------2----------|-4----6-------------------6--------------|
G#|-0---------------2---------------|-4---------------5---------------|-7---------7-------------------7---------|
D#|---------------------------------|---------------------------------|-----------------------------------------|

D#|-------------------------------------|---------------------------------|---------------------------------|
A#|-------------------------------------|---------------------------------|---------------------------------|
F#|-%---------4----6----6----4----------|-----------2---------------2-----|-----------2---------------2-----|
C#|-%---------6---------6---------6-----|------2---------------2----------|------2---------------2----------|
G#|------7------------------------------|-0---------------2---------------|-4---------------5---------------|
D#|-------------------------------------|---------------------------------|---------------------------------|

D#|-----------------------------------------|-----------------------------------------|
A#|-----------------------------------------|-----------------------------------------|
F#|---------------------%---------%---------|-----------------------------------------|
C#|-4----6----6----6----%----6----%----4----|-4----6----6----6----6-------------------|
G#|-7---------7----7---------7---------7----|-7---------7----7----7---------0---------|
D#|-0---------0----0---------0---------0----|-0---------0----0----0----2---------2----|

D#|---------------------------------|---------------------------------|-----------------------------------------|
A#|---------------------------------|---------------------------------|-----------------------------------------|
F#|-----------2---------------2-----|-----------2---------------2-----|---------------------%---------%---------|
C#|------2---------------2----------|------2---------------2----------|-4----6----6----6----%----6----%----4----|
G#|-0---------------2---------------|-4---------------5---------------|-7---------7----7---------7---------7----|
D#|---------------------------------|---------------------------------|-0---------0----0---------0---------0----|

D#|--------------------------------------------|-------------------------|-------------------------|
A#|--------------------------------------------|-------------------------|-------------------------|
F#|-----------4----4----4----6---6---6----4----|-------2-----------2-----|-------2-----------2-----|
C#|-4----6----6----6----6----6---6---6----4----|-------2-----------2-----|-------2-----------2-----|
G#|-7------------------------------------------|-0-----------2-----------|-4-----------5-----------|
D#|-0------------------------------------------|-------------------------|-------------------------|

D#|-----------------------------------------|-------------------------------------|
A#|-----------------------------------------|-------------------------------------|
F#|-7----9----9----9----9----9----9----9----|-11---13---13---13---13---14---14----|
C#|-----------------------------------------|-------------------------------------|
G#|-5----7----7----7----7----7----7----7----|-9----11---11---11---11---12---12----|
D#|-----------------------------------------|-------------------------------------|

D#|-------------------------|-------------------------|-----------------------------------------|
A#|-------------------------|-------------------------|-----------------------------------------|
F#|-------2-----------2-----|-------2-----------2-----|-7----9----9----9----9----9----9----9----|
C#|-------2-----------2-----|-------2-----------2-----|-----------------------------------------|
G#|-0-----------2-----------|-4-----------5-----------|-5----7----7----7----7----7----7----7----|
D#|-------------------------|-------------------------|-----------------------------------------|

D#|----------------------------------------|-----------------------------------------|
A#|----------------------------------------|-----------------------------------------|
F#|-11---13---13---13---13---X---X---------|-----------%---------%---------%---------|
C#|----------------------------------------|-4----4----%----4----%----4----%----4----|
G#|-9----11---11---11---11---X---X---------|-4----4---------4---------4---------4----|
D#|----------------------------------17----|-2----2---------2---------2---------2----|

D#|-----------------------------------------------|-----------------------------------------|
A#|-----------------------------------------------|-----------------------------------------|
F#|-%---------%---------%-------------------------|-----------%---------%---------%---------|
C#|-%----4----%----4----%-------------------------|------4----%----4----%----4----%----4----|
G#|------4---------4---------4---4---4----4---4---|-4----4---------4---------4---------4----|
D#|------2---------2---------0---2---3----0---2---|-3----2---------2---------2---------2----|

D#|-----------------------------------------------|-----------------------------------------|
A#|-----------------------------------------------|-----------------------------------------|
F#|-%---------%---------%-------------------------|-----------%---------%---------%---------|
C#|-%----4----%----4----%-------------------------|------4----%----4----%----4----%----4----|
G#|------4---------4---------4---4---4----4---4---|-4----4---------4---------4---------4----|
D#|------2---------2---------0---2---3----0---2---|-3----2---------2---------2---------2----|

D#|-----------------------------------------------|-----------------------------------------|
A#|-----------------------------------------------|-----------------------------------------|
F#|-%---------%---------%-------------------------|-----------%---------%---------%---------|
C#|-%----4----%----4----%-------------------------|------4----%----4----%----4----%----4----|
G#|------4---------4---------4---4---4----4---4---|-4----4---------4---------4---------4----|
D#|------2---------2---------0---2---3----0---2---|-3----2---------2---------2---------2----|

D#|-----------------------------------------------|-----------------------------------------|
A#|-----------------------------------------------|-----------------------------------------|
F#|-%---------%---------%-------------------------|-----------%---------%---------%---------|
C#|-%----4----%----4----%-------------------------|------4----%----4----%----4----%----4----|
G#|------4---------4---------4---4---4----4---4---|-4----4---------4---------4---------4----|
D#|------2---------2---------0---2---3----0---2---|-3----2---------2---------2---------2----|

D#|-----------------------------------------------|-----------------------------------------|
A#|-----------------------------------------------|-----------------------------------------|
F#|-%---------%---------%-------------------------|-----------%---------%---------%---------|
C#|-%----4----%----4----%-------------------------|------4----%----4----%----4----%----4----|
G#|------4---------4---------4---4---4----4---4---|-4----4---------4---------4---------4----|
D#|------2---------2---------0---2---3----0---2---|-3----2---------2---------2---------2----|

D#|-----------------------------------------|---------------|---------------------------------|
A#|-----------------------------------------|---------------|---------------------------------|
F#|-%---------%---------%-------------------|-6------7------|-%----9----9----11---11-----13---|
C#|-%----4----%----4----%-------------------|---------------|-%-------------------------------|
G#|------4---------4--------------0---------|-4------5------|------7----7----9----9------11---|
D#|------2---------2---------2---------2----|---------------|---------------------------------|

D#|---------|---------|---------------|---------------------------------|---------|
A#|---------|---------|---------------|---------------------------------|---------|
F#|-9-------|-9-------|-6------7------|-%----9----9----11---11-----13---|-9-------|
C#|---------|---------|---------------|-%-------------------------------|---------|
G#|-7-------|-7-------|-4------5------|------7----7----9----9------11---|-7-------|
D#|---------|---------|---------------|---------------------------------|---------|

D#|---------|-------------------------|-------------------------|-----------------------------------------|
A#|---------|-------------------------|-------------------------|-----------------------------------------|
F#|-9-------|-------2-----------2-----|-------2-----------2-----|-7----9----9----9----9----9----9----9----|
C#|---------|-------2-----------2-----|-------2-----------2-----|-----------------------------------------|
G#|-7-------|-0-----------2-----------|-4-----------5-----------|-5----7----7----7----7----7----7----7----|
D#|---------|-------------------------|-------------------------|-----------------------------------------|

D#|-------------------------------------|-------------------------|-------------------------|
A#|-------------------------------------|-------------------------|-------------------------|
F#|-11---13---13---13---13---14---14----|-------2-----------2-----|-------2-----------2-----|
C#|-------------------------------------|-------2-----------2-----|-------2-----------2-----|
G#|-9----11---11---11---11---12---12----|-0-----------2-----------|-4-----------5-----------|
D#|-------------------------------------|-------------------------|-------------------------|

D#|-----------------------------------------|----------------------------------------|
A#|-----------------------------------------|----------------------------------------|
F#|-7----9----9----9----9----9----9----9----|-11---13---13---13---13---X---X---------|
C#|-----------------------------------------|----------------------------------------|
G#|-5----7----7----7----7----7----7----7----|-9----11---11---11---11---X---X---------|
D#|-----------------------------------------|----------------------------------17----|

D#|-----------------------------------------|-----------------------------------------------|
A#|-----------------------------------------|-----------------------------------------------|
F#|-----------%---------%---------%---------|-%---------%---------%-------------------------|
C#|-4----4----%----4----%----4----%----4----|-%----4----%----4----%-------------------------|
G#|-4----4---------4---------4---------4----|------4---------4---------4---4---4----4---4---|
D#|-2----2---------2---------2---------2----|------2---------2---------0---2---3----0---2---|

D#|-----------------------------------------|-----------------------------------------------|
A#|-----------------------------------------|-----------------------------------------------|
F#|-----------%---------%---------%---------|-%---------%---------%-------------------------|
C#|------4----%----4----%----4----%----4----|-%----4----%----4----%-------------------------|
G#|-4----4---------4---------4---------4----|------4---------4---------4---4---4----4---4---|
D#|-3----2---------2---------2---------2----|------2---------2---------0---2---3----0---2---|

D#|-----------------------------------------|-----------------------------------------------|
A#|-----------------------------------------|-----------------------------------------------|
F#|-----------%---------%---------%---------|-%---------%---------%-------------------------|
C#|------4----%----4----%----4----%----4----|-%----4----%----4----%-------------------------|
G#|-4----4---------4---------4---------4----|------4---------4---------4---4---4----4---4---|
D#|-3----2---------2---------2---------2----|------2---------2---------0---2---3----0---2---|

D#|-----------------------------------------|-----------------------------------------------|
A#|-----------------------------------------|-----------------------------------------------|
F#|-----------%---------%---------%---------|-%---------%---------%-------------------------|
C#|------4----%----4----%----4----%----4----|-%----4----%----4----%-------------------------|
G#|-4----4---------4---------4---------4----|------4---------4---------4---4---4----4---4---|
D#|-3----2---------2---------2---------2----|------2---------2---------0---2---3----0---2---|

D#|-----------------------------------------|-----------------------------------------------|
A#|-----------------------------------------|-----------------------------------------------|
F#|-----------%---------%---------%---------|-%---------%---------%-------------------------|
C#|------4----%----4----%----4----%----4----|-%----4----%----4----%-------------------------|
G#|-4----4---------4---------4---------4----|------4---------4---------4---4---4----4---4---|
D#|-3----2---------2---------2---------2----|------2---------2---------0---2---3----0---2---|

D#|-----------------------------------------|-----------------------------------------------|
A#|-----------------------------------------|-----------------------------------------------|
F#|-----------%---------%---------%---------|-%---------%---------%-------------------------|
C#|------4----%----4----%----4----%----4----|-%----4----%----4----%-------------------------|
G#|-4----4---------4---------4---------4----|------4---------4---------4---4---4----4---4---|
D#|-3----2---------2---------2---------2----|------2---------2---------0---2---3----0---2---|

D#|-----------------------------------------|-----------------------------------------------|
A#|-----------------------------------------|-----------------------------------------------|
F#|-----------%---------%---------%---------|-%---------%---------%-------------------------|
C#|------4----%----4----%----4----%----4----|-%----4----%----4----%-------------------------|
G#|-4----4---------4---------4---------4----|------4---------4---------4---4---4----4---4---|
D#|-3----2---------2---------2---------2----|------2---------2---------0---2---3----0---2---|

D#|-----------------------------------------|-----------------------------------------------|
A#|-----------------------------------------|-----------------------------------------------|
F#|-----------%---------%---------%---------|-%---------%---------%-------------------------|
C#|------4----%----4----%----4----%----4----|-%----4----%----4----%-------------------------|
G#|-4----4---------4---------4---------4----|------4---------4---------4---4---4----4---4---|
D#|-3----2---------2---------2---------2----|------2---------2---------0---2---3----0---2---|

D#|-----------------------------------------|-----------------------------------------------------|
A#|-----------------------------------------|-----------------------------------------------------|
F#|-----------%---------%---------%---------|-%------------%------------%------------%------------|
C#|------4----%----4----%----4----%----4----|-%----2---2---%----2---2---%----2---2---%----2---2---|
G#|-4----4---------4---------4---------4----|------2---2--------2---2--------2---2--------2---2---|
D#|-3----2---------2---------2---------2----|------4---4--------4---4--------4---4--------4---4---|

D#|-----------------------------------------------------|-----------------------------------------------|
A#|-----------------------------------------------------|-----------------------------------------------|
F#|-%------------%------------%------------%------------|-%----4---4---%----4---4---%-------------------|
C#|-%----2---2---%----2---2---%----2---2---%----2---2---|-%----4---4---%----4---4---%-------------------|
G#|------2---2--------2---2--------2---2--------2---2---|------2---2--------2---2-----------------------|
D#|------5---5--------5---5--------5---5--------5---5---|--------------------------------0----3----2----|

D#|-----------------------------------------|-----------------------------------------------|
A#|-----------------------------------------|-----------------------------------------------|
F#|-----------%---------%---------%---------|-%---------%---------%-------------------------|
C#|------4----%----4----%----4----%----4----|-%----4----%----4----%-------------------------|
G#|-4----4---------4---------4---------4----|------4---------4---------4---4---4----4---4---|
D#|-3----2---------2---------2---------2----|------2---------2---------0---2---3----0---2---|

D#|-----------------------------------------|-----------------------------------------------|
A#|-----------------------------------------|-----------------------------------------------|
F#|-----------%---------%---------%---------|-%---------%---------%-------------------------|
C#|------4----%----4----%----4----%----4----|-%----4----%----4----%-------------------------|
G#|-4----4---------4---------4---------4----|------4---------4---------4---4---4----4---4---|
D#|-3----2---------2---------2---------2----|------2---------2---------0---2---3----0---2---|

D#|-----------------------------------------|-----------------------------------------------------|
A#|-----------------------------------------|-----------------------------------------------------|
F#|-----------%---------%---------%---------|-%------------%------------%------------%------------|
C#|------4----%----4----%----4----%----4----|-%----2---2---%----2---2---%----2---2---%----2---2---|
G#|-4----4---------4---------4---------4----|------2---2--------2---2--------2---2--------2---2---|
D#|-3----2---------2---------2---------2----|------4---4--------4---4--------4---4--------4---4---|

D#|-----------------------------------------------------|-----------------------------------------------|
A#|-----------------------------------------------------|-----------------------------------------------|
F#|-%------------%------------%------------%------------|-%----4---4---%----4---4---%-------------------|
C#|-%----2---2---%----2---2---%----2---2---%----2---2---|-%----4---4---%----4---4---%-------------------|
G#|------2---2--------2---2--------2---2--------2---2---|------2---2--------2---2-----------------------|
D#|------5---5--------5---5--------5---5--------5---5---|--------------------------------0----3----2----|

D#|----------------------------|---------|---------|
A#|----------------------------|---------|---------|
F#|-----------%----------------|---------|---------|
C#|-----------%----4----4------|-4-------|-4-------|
G#|----------------4----4------|-4-------|-4-------|
D#|-3----2---------2----2------|-2-------|-2-------|
Metallica - Hero Of The Day (Live)
Metallica - Hero Of The Day (Live).gp3