Metallica - Hit the Lights

Metallica - Hit the Lights

Metallica



Title: Hit the Lights
Album: 
Artist: 
Author: Metallica

Track 1: Guitar 1
E|---------|-------------------------|-------------|---------|---------|---------|---------|
B|---------|-------------------------|-------------|---------|---------|---------|---------|
G|---------|-------------------------|-------------|---------|---------|---------|---------|
D|-2-------|-2-----2-----2-----2-----|-2-----2-----|-2-------|---------|---------|---------|
A|-2-------|-2-----2-----2-----2-----|-2-----2-----|-2-------|-4-------|-4-------|-X-------|
E|-0-------|-0-----0-----0-----0-----|-0-----0-----|-0-------|-2-------|-2-------|-X-------|

E|-----------------------------------------------------|-----------------------------------------------------------|
B|-----------------------------------------------------|-----------------------------------------------------------|
G|------------------------------5----7---7---7----0----|-----------------------------------------------------------|
D|-5----------------------------5----7---7---7----0----|-5----------------------------7---5-------5---5------------|
A|-0----0---0---0---0---0---0--------------------------|-0----0---0---0---0---0---0-----------7-----------6---7----|
E|-----------------------------------------------------|-----------------------------------------------------------|

E|--------------------------------------------------------|----------------------------------------------------|
B|--------------------------------------------------------|----------------------------------------------------|
G|------------------------------5----7---7---7---0---0----|-5------------------------------------%---7---7-----|
D|-5----------------------------5----7---7---7---0---0----|-5------------------------------------%-------------|
A|-0----0---0---0---0---0---0-----------------------------|------0---0---0---0---0---0---6---7-----------------|
E|--------------------------------------------------------|----------------------------------------------------|

E|-----------------------------------------------------|-----------------------------------------------------------|
B|-----------------------------------------------------|-----------------------------------------------------------|
G|------------------------------5----7---7---7----0----|-5---------------------------------------------------------|
D|-5----------------------------5----7---7---7----0----|-5----------------------------7---5-------5---5------------|
A|-0----0---0---0---0---0---0--------------------------|------0---0---0---0---0---0-----------7-----------6---7----|
E|-----------------------------------------------------|-----------------------------------------------------------|

E|--------------------------------------------------------|----------------------------------------------|
B|--------------------------------------------------------|----------------------------------------5-----|
G|------------------------------5----7---7---7---0---0----|------------------------------------5---------|
D|-5----------------------------5----7---7---7---0---0----|-5----------------------------5---------------|
A|-0----0---0---0---0---0---0-----------------------------|-0----0---0---0---0---0---5-------------------|
E|--------------------------------------------------------|----------------------------------------------|

E|--------------------------------------------------------|-----------------------------------------------------------|
B|--------------------------------------------------------|-----------------------------------------------------------|
G|------------------------------5----7---7---7---0---0----|-----------------------------------------------------------|
D|-5----------------------------5----7---7---7---0---0----|-5----------------------------7---5-------5---5------------|
A|-0----0---0---0---0---0---0-----------------------------|-0----0---0---0---0---0---0-----------7-----------6---7----|
E|--------------------------------------------------------|-----------------------------------------------------------|

E|--------------------------------------------------------|-----------------------------------------------------------|
B|--------------------------------------------------------|-----------------------------------------------------------|
G|------------------------------5----7---7---7---0---0----|-5---------------------------------------------------------|
D|-5----------------------------5----7---7---7---0---0----|-5----------------------------7---5-------5---5------------|
A|-0----0---0---0---0---0---0-----------------------------|------0---0---0---0---0---0-----------7-----------6---7----|
E|--------------------------------------------------------|-----------------------------------------------------------|

E|-------------------------|---------------------------------|--------------------------------------------------------|
B|-------------------------|---------------------------------|--------------------------------------------------------|
G|-7----7------------------|-7----7--------------------------|------------------------------5----7---7---7---0---0----|
D|-7----7------5----5------|-7----7--------------------------|-5----------------------------5----7---7---7---0---0----|
A|-5----5------5----5------|-5----5------3-----2---2---------|-0----0---0---0---0---0---0-----------------------------|
E|-------------3----3------|----------------------------3----|--------------------------------------------------------|

E|-----------------------------------------------------------|--------------------------------------------------------|
B|-----------------------------------------------------------|--------------------------------------------------------|
G|-----------------------------------------------------------|------------------------------5----7---7---7---0---0----|
D|-5----------------------------7---5-------5---5------------|-5----------------------------5----7---7---7---0---0----|
A|-0----0---0---0---0---0---0-----------7-----------6---7----|-0----0---0---0---0---0---0-----------------------------|
E|-----------------------------------------------------------|--------------------------------------------------------|

E|-----------------------------------------------------------|-------------------------|
B|-----------------------------------------------------------|-------------------------|
G|-5---------------------------------------------------------|-7----7------------------|
D|-5----------------------------7---5-------5---5------------|-7----7------5----5------|
A|------0---0---0---0---0---0-----------7-----------6---7----|-5----5------5----5------|
E|-----------------------------------------------------------|-------------3----3------|

E|---------------------------------|--------------------------------------------------------|
B|---------------------------------|--------------------------------------------------------|
G|-7----7--------------------------|------------------------------5----7---7---7---0---0----|
D|-7----7--------------------------|-5----------------------------5----7---7---7---0---0----|
A|-5----5------3-----2---2---------|-0----0---0---0---0---0---0-----------------------------|
E|----------------------------3----|--------------------------------------------------------|

E|-----------------------------------------------------------|--------------------|
B|-----------------------------------------------------------|--------------------|
G|-----------------------------------------------------------|--------------------|
D|-5----------------------------7---5-------5---5------------|------9------9------|
A|-0----0---0---0---0---0---0-----------7-----------6---7----|------7------7------|
E|-----------------------------------------------------------|-0------------------|

E|-------------------------------------|------------------------------------|-----------------------------------|
B|-------------------------------------|------------------------------------|-----------------------------------|
G|-------------------------------------|------%------------------%----------|---------%-------------------------|
D|-------------------------------------|-2----%----2---------2---%----2-----|-----2---%----2-----5--------------|
A|-------------------3-----2-----------|-0---------0---------0--------0-----|-----0--------0-----3-----5---5----|
E|-3-----2-----3-----------------3-----|-----------------3------------------|-3------------------------3---3----|

E|------------------------------------|-----------------------------------|------------------------------------|
B|------------------------------------|-----------------------------------|------------------------------------|
G|------%------------------%----------|---------%-------------------------|------%------------------%----------|
D|-2----%----2---------2---%----2-----|-----2---%----2-----5--------------|-2----%----2---------2---%----2-----|
A|-0---------0---------0--------0-----|-----0--------0-----3-----5---5----|-0---------0---------0--------0-----|
E|-----------------3------------------|-3------------------------3---3----|-----------------3------------------|

E|-----------------------------------|------------------------------------|---------|
B|-----------------------------------|------------------------------------|---------|
G|---------%-------------------------|------%------------------%----------|-%-------|
D|-----2---%----2-----5--------------|-2----%----2---------2---%----2-----|-%-------|
A|-----0--------0-----3-----5---5----|-0---------0---------0--------0-----|---------|
E|-3------------------------3---3----|-----------------3------------------|---------|

E|--------------------------------------------------------|-----------------------------------------------------------|
B|--------------------------------------------------------|-----------------------------------------------------------|
G|------------------------------5----7---7---7---0---0----|-----------------------------------------------------------|
D|-5----------------------------5----7---7---7---0---0----|-5----------------------------7---5-------5---5------------|
A|-0----0---0---0---0---0---0-----------------------------|-0----0---0---0---0---0---0-----------7-----------6---7----|
E|--------------------------------------------------------|-----------------------------------------------------------|

E|--------------------------------------------------------|-----------------------------------------------------------|
B|--------------------------------------------------------|-----------------------------------------------------------|
G|------------------------------5----7---7---7---0---0----|-5---------------------------------------------------------|
D|-5----------------------------5----7---7---7---0---0----|-5----------------------------7---5-------5---5------------|
A|-0----0---0---0---0---0---0-----------------------------|------0---0---0---0---0---0-----------7-----------6---7----|
E|--------------------------------------------------------|-----------------------------------------------------------|

E|-------------------------|---------------------------------|--------------------------------------------------------|
B|-------------------------|---------------------------------|--------------------------------------------------------|
G|-7----7------------------|-7----7--------------------------|------------------------------5----7---7---7---0---0----|
D|-7----7------5----5------|-7----7--------------------------|-5----------------------------5----7---7---7---0---0----|
A|-5----5------5----5------|-5----5------3-----2---2---------|-0----0---0---0---0---0---0-----------------------------|
E|-------------3----3------|----------------------------3----|--------------------------------------------------------|

E|-----------------------------------------------------------|--------------------------------------------------------|
B|-----------------------------------------------------------|--------------------------------------------------------|
G|-----------------------------------------------------------|------------------------------5----7---7---7---0---0----|
D|-5----------------------------7---5-------5---5------------|-5----------------------------5----7---7---7---0---0----|
A|-0----0---0---0---0---0---0-----------7-----------6---7----|-0----0---0---0---0---0---0-----------------------------|
E|-----------------------------------------------------------|--------------------------------------------------------|

E|-----------------------------------------------------------|-------------------------|
B|-----------------------------------------------------------|-------------------------|
G|-5---------------------------------------------------------|-7----7------------------|
D|-5----------------------------7---5-------5---5------------|-7----7------5----5------|
A|------0---0---0---0---0---0-----------7-----------6---7----|-5----5------5----5------|
E|-----------------------------------------------------------|-------------3----3------|

E|---------------------------------|--------------------------------------------------------|
B|---------------------------------|--------------------------------------------------------|
G|-7----7--------------------------|------------------------------5----7---7---7---0---0----|
D|-7----7--------------------------|-5----------------------------5----7---7---7---0---0----|
A|-5----5------3-----2---2---------|-0----0---0---0---0---0---0-----------------------------|
E|----------------------------3----|--------------------------------------------------------|

E|-----------------------------------------------------------|--------------------|
B|-----------------------------------------------------------|--------------------|
G|-----------------------------------------------------------|--------------------|
D|-5----------------------------7---5-------5---5------------|------9------9------|
A|-0----0---0---0---0---0---0-----------7-----------6---7----|------7------7------|
E|-----------------------------------------------------------|-0------------------|

E|-------------------------------------|------------------------------------|-----------------------------------|
B|-------------------------------------|------------------------------------|-----------------------------------|
G|-------------------------------------|------%------------------%----------|---------%-------------------------|
D|-------------------------------------|-2----%----2---------2---%----2-----|-----2---%----2-----5--------------|
A|-------------------3-----2-----------|-0---------0---------0--------0-----|-----0--------0-----3-----5---5----|
E|-3-----2-----3-----------------3-----|-----------------3------------------|-3------------------------3---3----|

E|------------------------------------|-----------------------------------|------------------------------------|
B|------------------------------------|-----------------------------------|------------------------------------|
G|------%------------------%----------|---------%-------------------------|------%------------------%----------|
D|-2----%----2---------2---%----2-----|-----2---%----2-----5--------------|-2----%----2---------2---%----2-----|
A|-0---------0---------0--------0-----|-----0--------0-----3-----5---5----|-0---------0---------0--------0-----|
E|-----------------3------------------|-3------------------------3---3----|-----------------3------------------|

E|-----------------------------------|------------------------------------|---------|
B|-----------------------------------|------------------------------------|---------|
G|---------%-------------------------|------%------------------%----------|-%-------|
D|-----2---%----2-----5--------------|-2----%----2---------2---%----2-----|-%-------|
A|-----0--------0-----3-----5---5----|-0---------0---------0--------0-----|---------|
E|-3------------------------3---3----|-----------------3------------------|---------|

E|--------------------------------------------------------|-----------------------------------------------------------|
B|--------------------------------------------------------|-----------------------------------------------------------|
G|------------------------------5----7---7---7---0---0----|-----------------------------------------------------------|
D|-5----------------------------5----7---7---7---0---0----|-5----------------------------7---5-------5---5------------|
A|-0----0---0---0---0---0---0-----------------------------|-0----0---0---0---0---0---0-----------7-----------6---7----|
E|--------------------------------------------------------|-----------------------------------------------------------|

E|--------------------------------------------------------|-----------------------------------------------------------|
B|--------------------------------------------------------|-----------------------------------------------------------|
G|------------------------------5----7---7---7---0---0----|-5---------------------------------------------------------|
D|-5----------------------------5----7---7---7---0---0----|-5----------------------------7---5-------5---5------------|
A|-0----0---0---0---0---0---0-----------------------------|------0---0---0---0---0---0-----------7-----------6---7----|
E|--------------------------------------------------------|-----------------------------------------------------------|

E|-------------------------|---------------------------------|--------------------------------------------------------|
B|-------------------------|---------------------------------|--------------------------------------------------------|
G|-7----7------------------|-7----7--------------------------|------------------------------5----7---7---7---0---0----|
D|-7----7------5----5------|-7----7--------------------------|-5----------------------------5----7---7---7---0---0----|
A|-5----5------5----5------|-5----5------3-----2---2---------|-0----0---0---0---0---0---0-----------------------------|
E|-------------3----3------|----------------------------3----|--------------------------------------------------------|

E|-----------------------------------------------------------|--------------------------------------------------------|
B|-----------------------------------------------------------|--------------------------------------------------------|
G|-----------------------------------------------------------|------------------------------5----7---7---7---0---0----|
D|-5----------------------------7---5-------5---5------------|-5----------------------------5----7---7---7---0---0----|
A|-0----0---0---0---0---0---0-----------7-----------6---7----|-0----0---0---0---0---0---0-----------------------------|
E|-----------------------------------------------------------|--------------------------------------------------------|

E|-----------------------------------------------------------|-------------------------|
B|-----------------------------------------------------------|-------------------------|
G|-5---------------------------------------------------------|-7----7------------------|
D|-5----------------------------7---5-------5---5------------|-7----7------5----5------|
A|------0---0---0---0---0---0-----------7-----------6---7----|-5----5------5----5------|
E|-----------------------------------------------------------|-------------3----3------|

E|---------------------------------|--------------------------------------------------------|
B|---------------------------------|--------------------------------------------------------|
G|-7----7--------------------------|------------------------------5----7---7---7---0---0----|
D|-7----7--------------------------|-5----------------------------5----7---7---7---0---0----|
A|-5----5------3-----2---2---------|-0----0---0---0---0---0---0-----------------------------|
E|----------------------------3----|--------------------------------------------------------|

E|-----------------------------------------------------------|--------------------|
B|-----------------------------------------------------------|--------------------|
G|-----------------------------------------------------------|--------------------|
D|-5----------------------------7---5-------5---5------------|------9------9------|
A|-0----0---0---0---0---0---0-----------7-----------6---7----|------7------7------|
E|-----------------------------------------------------------|-0------------------|

E|-------------------------------------|------------------------------------|-----------------------------------|
B|-------------------------------------|------------------------------------|-----------------------------------|
G|-------------------------------------|------%------------------%----------|---------%-------------------------|
D|-------------------------------------|-2----%----2---------2---%----2-----|-----2---%----2-----5--------------|
A|-------------------3-----2-----------|-0---------0---------0--------0-----|-----0--------0-----3-----5---5----|
E|-3-----2-----3-----------------3-----|-----------------3------------------|-3------------------------3---3----|

E|------------------------------------|-----------------------------------|------------------------------------|
B|------------------------------------|-----------------------------------|------------------------------------|
G|------%------------------%----------|---------%-------------------------|------%------------------%----------|
D|-2----%----2---------2---%----2-----|-----2---%----2-----5--------------|-2----%----2---------2---%----2-----|
A|-0---------0---------0--------0-----|-----0--------0-----3-----5---5----|-0---------0---------0--------0-----|
E|-----------------3------------------|-3------------------------3---3----|-----------------3------------------|

E|-----------------------------------|------------------------------------|-----------------------------------|
B|-----------------------------------|------------------------------------|-----------------------------------|
G|---------%-------------------------|------%------------------%----------|---------%-------------------------|
D|-----2---%----2-----5--------------|-2----%----2---------2---%----2-----|-----2---%----2-----5--------------|
A|-----0--------0-----3-----5---5----|-0---------0---------0--------0-----|-----0--------0-----3-----5---5----|
E|-3------------------------3---3----|-----------------3------------------|-3------------------------3---3----|

E|---------------|----------------------------------------------|----------------------------------------------|
B|---------------|----------------------------------------------|----------------------------------------------|
G|--------4------|------%-----------%--------%--------%---5-----|------%-----------%--------%--------%---7-----|
D|-2------5------|-7----%---7---7---%---7----%---7----%---5-----|-7----%---7---7---%---7----%---7----%---7-----|
A|-0------5------|-0--------0---0-------0--------0--------------|-0--------0---0-------0--------0--------------|
E|--------3------|----------------------------------------------|----------------------------------------------|

E|----------------------------------------------|------------------------------------|
B|----------------------------------------------|------------------------------------|
G|------%-----------%--------%--------%---5-----|------------------------------------|
D|-7----%---7---7---%---7----%---7----%---5-----|-7-----5---5------------------------|
A|-0--------0---0-------0--------0--------------|----------------7----6----5---------|
E|----------------------------------------------|-------------------------------8----|

E|----------------------------------------------|----------------------------------------------|
B|----------------------------------------------|----------------------------------------------|
G|-4----%---4---4---%---4----%---4----%---7-----|-4----%---4---4---%---4----%---4----%---9-----|
D|-4----%---4---4---%---4----%---4----%---7-----|-4----%---4---4---%---4----%---4----%---9-----|
A|-2--------2---2-------2--------2--------5-----|-2--------2---2-------2--------2--------7-----|
E|----------------------------------------------|----------------------------------------------|

E|----------------------------------------------|------------------------------------|
B|----------------------------------------------|------------------------------------|
G|-4----%---4---4---%---4----%---4----%---7-----|------------------------------------|
D|-4----%---4---4---%---4----%---4----%---7-----|-9-----7---7------------------------|
A|-2--------2---2-------2--------2--------5-----|----------------9----8----7---------|
E|----------------------------------------------|-------------------------------10---|

E|----------------------------------------------|----------------------------------------------|
B|----------------------------------------------|----------------------------------------------|
G|-4----%---4---4---%---4----%---4----%---7-----|-4----%---4---4---%---4----%---4----%---9-----|
D|-4----%---4---4---%---4----%---4----%---7-----|-4----%---4---4---%---4----%---4----%---9-----|
A|-2--------2---2-------2--------2--------5-----|-2--------2---2-------2--------2--------7-----|
E|----------------------------------------------|----------------------------------------------|

E|----------------------------------------------|------------------------------------|
B|----------------------------------------------|------------------------------------|
G|-4----%---4---4---%---4----%---4----%---7-----|------------------------------------|
D|-4----%---4---4---%---4----%---4----%---7-----|-9-----7---7------------------------|
A|-2--------2---2-------2--------2--------5-----|----------------9----8----7---------|
E|----------------------------------------------|-------------------------------10---|

E|----------------------------------------------|----------------------------------------------|
B|----------------------------------------------|----------------------------------------------|
G|-4----%---4---4---%---4----%---4----%---7-----|-4----%---4---4---%---4----%---4----%---9-----|
D|-4----%---4---4---%---4----%---4----%---7-----|-4----%---4---4---%---4----%---4----%---9-----|
A|-2--------2---2-------2--------2--------5-----|-2--------2---2-------2--------2--------7-----|
E|----------------------------------------------|----------------------------------------------|

E|----------------------------------------------|------------------------------------|
B|----------------------------------------------|------------------------------------|
G|-4----%---4---4---%---4----%---4----%---7-----|------------------------------------|
D|-4----%---4---4---%---4----%---4----%---7-----|-9-----7---7------------------------|
A|-2--------2---2-------2--------2--------5-----|----------------9----8----7---------|
E|----------------------------------------------|-------------------------------10---|

E|----------------------------------------------|----------------------------------------------|
B|----------------------------------------------|----------------------------------------------|
G|-4----%---4---4---%---4----%---4----%---7-----|-4----%---4---4---%---4----%---4----%---9-----|
D|-4----%---4---4---%---4----%---4----%---7-----|-4----%---4---4---%---4----%---4----%---9-----|
A|-2--------2---2-------2--------2--------5-----|-2--------2---2-------2--------2--------7-----|
E|----------------------------------------------|----------------------------------------------|

E|----------------------------------------------|------------------------------------|
B|----------------------------------------------|------------------------------------|
G|-4----%---4---4---%---4----%---4----%---7-----|------------------------------------|
D|-4----%---4---4---%---4----%---4----%---7-----|-9-----7---7------------------------|
A|-2--------2---2-------2--------2--------5-----|----------------9----8----7---------|
E|----------------------------------------------|-------------------------------10---|

E|----------------------------------------------|----------------------------------------------|
B|----------------------------------------------|----------------------------------------------|
G|-4----%---4---4---%---4----%---4----%---7-----|-4----%---4---4---%---4----%---4----%---9-----|
D|-4----%---4---4---%---4----%---4----%---7-----|-4----%---4---4---%---4----%---4----%---9-----|
A|-2--------2---2-------2--------2--------5-----|-2--------2---2-------2--------2--------7-----|
E|----------------------------------------------|----------------------------------------------|

E|----------------------------------------------|------------------------------------|
B|----------------------------------------------|------------------------------------|
G|-4----%---4---4---%---4----%---4----%---7-----|------------------------------------|
D|-4----%---4---4---%---4----%---4----%---7-----|-9-----7---7------------------------|
A|-2--------2---2-------2--------2--------5-----|----------------9----8----7---------|
E|----------------------------------------------|-------------------------------10---|

E|----------------------------------------------|----------------------------------------------|
B|----------------------------------------------|----------------------------------------------|
G|-4----%---4---4---%---4----%---4----%---7-----|-4----%---4---4---%---4----%---4----%---9-----|
D|-4----%---4---4---%---4----%---4----%---7-----|-4----%---4---4---%---4----%---4----%---9-----|
A|-2--------2---2-------2--------2--------5-----|-2--------2---2-------2--------2--------7-----|
E|----------------------------------------------|----------------------------------------------|

E|----------------------------------------------|------------------------------------|
B|----------------------------------------------|------------------------------------|
G|-4----%---4---4---%---4----%---4----%---7-----|------------------------------------|
D|-4----%---4---4---%---4----%---4----%---7-----|-9-----7---7------------------------|
A|-2--------2---2-------2--------2--------5-----|----------------9----8----7---------|
E|----------------------------------------------|-------------------------------10---|

E|----------------------------------------------|----------------------------------------------|
B|----------------------------------------------|----------------------------------------------|
G|-4----%---4---4---%---4----%---4----%---7-----|-4----%---4---4---%---4----%---4----%---9-----|
D|-4----%---4---4---%---4----%---4----%---7-----|-4----%---4---4---%---4----%---4----%---9-----|
A|-2--------2---2-------2--------2--------5-----|-2--------2---2-------2--------2--------7-----|
E|----------------------------------------------|----------------------------------------------|

E|----------------------------------------------|------------------------------------|
B|----------------------------------------------|------------------------------------|
G|-4----%---4---4---%---4----%---4----%---7-----|------------------------------------|
D|-4----%---4---4---%---4----%---4----%---7-----|-9-----7---7------------------------|
A|-2--------2---2-------2--------2--------5-----|----------------9----8----7---------|
E|----------------------------------------------|-------------------------------10---|

E|----------------------------------------------|----------------------------------------------|
B|----------------------------------------------|----------------------------------------------|
G|-4----%---4---4---%---4----%---4----%---7-----|-4----%---4---4---%---4----%---4----%---9-----|
D|-4----%---4---4---%---4----%---4----%---7-----|-4----%---4---4---%---4----%---4----%---9-----|
A|-2--------2---2-------2--------2--------5-----|-2--------2---2-------2--------2--------7-----|
E|----------------------------------------------|----------------------------------------------|

E|----------------------------------------------|------------------------------------|
B|----------------------------------------------|------------------------------------|
G|-4----%---4---4---%---4----%---4----%---7-----|------------------------------------|
D|-4----%---4---4---%---4----%---4----%---7-----|-9-----7---7------------------------|
A|-2--------2---2-------2--------2--------5-----|----------------9----8----7---------|
E|----------------------------------------------|-------------------------------10---|

E|----------------------------------------------|----------------------------------------------|
B|----------------------------------------------|----------------------------------------------|
G|------%-----------%--------%--------%---5-----|------%-----------%--------%--------%---7-----|
D|-7----%---7---7---%---7----%---7----%---5-----|-7----%---7---7---%---7----%---7----%---7-----|
A|-7--------7---7-------7--------7--------3-----|-7--------7---7-------7--------7--------5-----|
E|-5--------5---5-------5--------5--------------|-5--------5---5-------5--------5--------------|

E|----------------------------------------------|------------------------------------|
B|----------------------------------------------|------------------------------------|
G|------%-----------%--------%--------%---5-----|------------------------------------|
D|-7----%---7---7---%---7----%---7----%---5-----|-7-----5---5------------------------|
A|-7--------7---7-------7--------7--------3-----|----------------7----6----5---------|
E|-5--------5---5-------5--------5--------------|-------------------------------8----|

E|----------------------------------------------|----------------------------------------------|
B|----------------------------------------------|----------------------------------------------|
G|------%-----------%--------%--------%---5-----|------%-----------%--------%--------%---7-----|
D|-7----%---7---7---%---7----%---7----%---5-----|-7----%---7---7---%---7----%---7----%---7-----|
A|-7--------7---7-------7--------7--------3-----|-7--------7---7-------7--------7--------5-----|
E|-5--------5---5-------5--------5--------------|-5--------5---5-------5--------5--------------|

E|----------------------------------------------|------------------------------------|
B|----------------------------------------------|------------------------------------|
G|------%-----------%--------%--------%---5-----|------------------------------------|
D|-7----%---7---7---%---7----%---7----%---5-----|-7-----5---5------------------------|
A|-7--------7---7-------7--------7--------3-----|----------------7----6----5---------|
E|-5--------5---5-------5--------5--------------|-------------------------------8----|

E|------------------------------------|------------------------------------|-------------------------------------------------------------------------------------------------|
B|------------------------------------|------------------------------------|-------------------------------------------------------------------------------------------------|
G|------------------------------------|------------------------------------|-2--2--2--2--2--2--2--2--2--2--2--2--2--2--2--2--2--2--2--2--2--2--2--2--2--2--2--2--2--2--2--2--|
D|-7-----5---5------------------------|-7-----5---5------------------------|-2--2--2--2--2--2--2--2--2--2--2--2--2--2--2--2--2--2--2--2--2--2--2--2--2--2--2--2--2--2--2--2--|
A|----------------7----6----5---------|----------------7----6----5---------|-0--0--0--0--0--0--0--0--0--0--0--0--0--0--0--0--0--0--0--0--0--0--0--0--0--0--0--0--0--0--0--0--|
E|-------------------------------8----|-------------------------------8----|-------------------------------------------------------------------------------------------------|

E|-------------------------------------------------------------------------------------------------|
B|-------------------------------------------------------------------------------------------------|
G|-2--2--2--2--2--2--2--2--2--2--2--2--2--2--2--2--2--2--2--2--2--2--2--2--2--2--2--2--2--2--2--2--|
D|-2--2--2--2--2--2--2--2--2--2--2--2--2--2--2--2--2--2--2--2--2--2--2--2--2--2--2--2--2--2--2--2--|
A|-0--0--0--0--0--0--0--0--0--0--0--0--0--0--0--0--0--0--0--0--0--0--0--0--0--0--0--0--0--0--0--0--|
E|-------------------------------------------------------------------------------------------------|

E|---------|---------|--------------------|
B|---------|---------|--------------------|
G|-2-------|-2-------|-2-----2-----%------|
D|-2-------|-2-------|-2-----2-----%------|
A|-0-------|-0-------|-0-----0------------|
E|---------|---------|--------------------|
Metallica - Hit the Lights
Metallica - Hit the Lights.gp3