Metallica - Holier Than Thou

Metallica - Holier Than Thou

Metallica



Title: Holier Than Thou
Album: 
Artist: Metallica
Author: 

Track 1: Guitar 1
E|------------------------|-----------------------------------------------|-----------------------------------------------|
B|------------------------|-----------------------------------------------|-----------------------------------------------|
G|-%------%-----%---------|-----------------------------------------------|-----------------------------------------------|
D|-%------%-----%----2----|-2----------------------------------------2----|-2----------------------------------------2----|
A|-------------------2----|-2----------------------------------------2----|-2----------------------------------------2----|
E|-------------------0----|-0----0----0---0---0----0---0---0----0----0----|-0----0----0---0---0----0---0---0----0----0----|

E|-----------------------------------------------|-----------------------------------------------|
B|-----------------------------------------------|-----------------------------------------------|
G|-----------------------------------------------|-----------------------------------------------|
D|-2----------------------------------------2----|-2----------------------------------------2----|
A|-2----------------------------------------2----|-2----------------------------------------2----|
E|-0----0----0---0---0----0---0---0----0----0----|-0----0----0---0---0----0---0---0----0----0----|

E|-----------------------------------------------|-----------------------------------------------|
B|-----------------------------------------------|-----------------------------------------------|
G|-----------------------------------------------|-----------------------------------------------|
D|-2----------------------------------------2----|-2----------------------------------------2----|
A|-2----------------------------------------2----|-2----------------------------------------2----|
E|-0----0----0---0---0----0---0---0----0----0----|-0----0----0---0---0----0---0---0----0----0----|

E|-----------------------------------------------|-----------------------------------------------|
B|-----------------------------------------------|-----------------------------------------------|
G|-----------------------------------------------|-----------------------------------------------|
D|-2----------------------------------------2----|-2----------------------------------------2----|
A|-2----------------------------------------2----|-2----------------------------------------2----|
E|-0----0----0---0---0----0---0---0----0----0----|-0----0----0---0---0----0---0---0----0----0----|

E|-----------------------------------------------|-----------------------------------------------|
B|-----------------------------------------------|-----------------------------------------------|
G|-----------------------------------------------|-----------------------------------------------|
D|-2----------------------------------------2----|-2----------------------------------------2----|
A|-2----------------------------------------2----|-2----------------------------------------2----|
E|-0----0----0---0---0----0---0---0----0----0----|-0----0----0---0---0----0---0---0----0----0----|

E|-----------------------------------------------|-----------------------------------------------|
B|-----------------------------------------------|-----------------------------------------------|
G|-----------------------------------------------|-----------------------------------------------|
D|-2----------------------------------------2----|-2----------------------------------------2----|
A|-2----------------------------------------2----|-2----------------------------------------2----|
E|-0----0----0---0---0----0---0---0----0----0----|-0----0----0---0---0----0---0---0----0----0----|

E|-----------------------------------------------|-----------------------------------------------|
B|-----------------------------------------------|-----------------------------------------------|
G|-----------------------------------------------|-----------------------------------------------|
D|-2----------------------------------------2----|-2----------------------------------------2----|
A|-2----------------------------------------2----|-2----------------------------------------2----|
E|-0----0----0---0---0----0---0---0----0----0----|-0----0----0---0---0----0---0---0----0----0----|

E|-----------------------------------------------|-----------------------------------------------|
B|-----------------------------------------------|-----------------------------------------------|
G|-----------------------------------------------|-----------------------------------------------|
D|-2----------------------------------------2----|-2----------------------------------------2----|
A|-2----------------------------------------2----|-2----------------------------------------2----|
E|-0----0----0---0---0----0---0---0----0----0----|-0----0----0---0---0----0---0---0----0----0----|

E|-----------------------------------------------|-----------------------------------------------|
B|-----------------------------------------------|-----------------------------------------------|
G|-----------------------------------------------|-----------------------------------------------|
D|-2----------------------------------------2----|-2----------------------------------------2----|
A|-2----------------------------------------2----|-2----------------------------------------2----|
E|-0----0----0---0---0----0---0---0----0----0----|-0----0----0---0---0----0---0---0----0----0----|

E|-----------------------------------------------|-----------------------------------------------|
B|-----------------------------------------------|-----------------------------------------------|
G|-----------------------------------------------|-----------------------------------------------|
D|-2----------------------------------------2----|-2----------------------------------------2----|
A|-2----------------------------------------2----|-2----------------------------------------2----|
E|-0----0----0---0---0----0---0---0----0----0----|-0----0----0---0---0----0---0---0----0----0----|

E|-----------------------------------------------|-----------------------------------------------|
B|-----------------------------------------------|-----------------------------------------------|
G|-----------------------------------------------|-----------------------------------------------|
D|-2----------------------------------------2----|-2----------------------------------------2----|
A|-2----------------------------------------2----|-2----------------------------------------2----|
E|-0----0----0---0---0----0---0---0----0----0----|-0----0----0---0---0----0---0---0----0----0----|

E|-----------------------------------------------|-----------------------------------------|
B|-----------------------------------------------|-----------------------------------------|
G|-----------------------------------------------|-----------------------------------------|
D|-2----------------------------------------2----|-2----------------------------------2----|
A|-2----------------------------------------2----|-2----0----1---------0----1---------2----|
E|-0----0----0---0---0----0---0---0----0----0----|-0--------------3--------------3----0----|

E|-----------------------------------------|-------------------------------------|-----------------------------------------|
B|-----------------------------------------|-------------------------------------|-----------------------------------------|
G|-----------------------------------------|-------------------------------------|-----------------------------------------|
D|-2----------------------------------2----|-2-----------------------------------|------------------------------------2----|
A|-2----0----1---------0----1---------2----|-2----0----1---------0----1----------|------0----1---------0----1---------2----|
E|-0--------------3--------------3----0----|-0--------------3--------------3-----|-0--------------3--------------3----0----|

E|-------------------------------------|-----------------------------------------|-------------------------------------|
B|-------------------------------------|-----------------------------------------|-------------------------------------|
G|-------------------------------------|-----------------------------------------|-------------------------------------|
D|-2-----------------------------------|------------------------------------2----|-2-----------------------------------|
A|-2----0----1---------0----1----------|------0----1---------0----1---------2----|-2----0----1---------0----1----------|
E|-0--------------3--------------3-----|-0--------------3--------------3----0----|-0--------------3--------------3-----|

E|-----------------------------------------|-------------------------------------|---------|
B|-----------------------------------------|-------------------------------------|---------|
G|-----------------------------------------|-------------------------------------|---------|
D|------------------------------------2----|-2-----------------------------2-----|-2-------|
A|------0----1---------0----1---------2----|-2----0----1---------0----1----2-----|-2-------|
E|-0--------------3--------------3----0----|-0--------------3--------------0-----|-0-------|

E|-------------------------------------|---------|-------------------------------------|
B|-------------------------------------|---------|-------------------------------------|
G|-------------------------------------|---------|-------------------------------------|
D|-2-----------------------------5-----|-5-------|-5-----------------------------2-----|
A|-2----0----1---------0----1----5-----|-5-------|-5----0----1---------0----1----2-----|
E|-0--------------3--------------3-----|-3-------|-3--------------3--------------0-----|

E|---------|-------------------------------------|---------|-------------------------------------|
B|---------|-------------------------------------|---------|-------------------------------------|
G|---------|-------------------------------------|---------|-------------------------------------|
D|-2-------|-2-----------------------------5-----|-5-------|-5-----------------------------2-----|
A|-2-------|-2----0----1---------0----1----5-----|-5-------|-5----0----1---------0----1----2-----|
E|-0-------|-0--------------3--------------3-----|-3-------|-3--------------3--------------0-----|

E|---------|--------------------------------------------|--------------------------------------------|
B|---------|--------------------------------------------|--------------------------------------------|
G|---------|--------------------------------------------|--------------------------------------------|
D|-2-------|-2------------------------------------------|---------------------------------------2----|
A|-2-------|-2----0----1---------0----1---------0--1----|-1----1----1----1----0--1----0---------2----|
E|-0-------|-0--------------3--------------3------------|----------------------------------3----0----|

E|-----------------------------------------------|-----------------------------------------------|
B|-----------------------------------------------|-----------------------------------------------|
G|-----------------------------------------------|-----------------------------------------------|
D|-2----------------------------------------2----|-2----------------------------------------2----|
A|-2----------------------------------------2----|-2----------------------------------------2----|
E|-0----0----0---0---0----0---0---0----0----0----|-0----0----0---0---0----0---0---0----0----0----|

E|-------------------------------------|---------|-------------------------------------|
B|-------------------------------------|---------|-------------------------------------|
G|-------------------------------------|---------|-------------------------------------|
D|-2-----------------------------5-----|-5-------|-5-----------------------------2-----|
A|-2----0----1---------0----1----5-----|-5-------|-5----0----1---------0----1----2-----|
E|-0--------------3--------------3-----|-3-------|-3--------------3--------------0-----|

E|---------|-------------------------------------|---------|-------------------------------------|
B|---------|-------------------------------------|---------|-------------------------------------|
G|---------|-------------------------------------|---------|-------------------------------------|
D|-2-------|-2-----------------------------5-----|-5-------|-5-----------------------------2-----|
A|-2-------|-2----0----1---------0----1----5-----|-5-------|-5----0----1---------0----1----2-----|
E|-0-------|-0--------------3--------------3-----|-3-------|-3--------------3--------------0-----|

E|---------|--------------------------------------------|--------------------------------------------|
B|---------|--------------------------------------------|--------------------------------------------|
G|---------|--------------------------------------------|--------------------------------------------|
D|-2-------|-2------------------------------------------|---------------------------------------2----|
A|-2-------|-2----0----1---------0----1---------0--1----|-1----1----1----1----0--1----0---------2----|
E|-0-------|-0--------------3--------------3------------|----------------------------------3----0----|

E|-----------------------------------------|-------------------------------------|-----------------------------------------|
B|-----------------------------------------|-------------------------------------|-----------------------------------------|
G|-----------------------------------------|-------------------------------------|-----------------------------------------|
D|-2----------------------------------2----|-2-----------------------------------|------------------------------------2----|
A|-2----0----1---------0----1---------2----|-2----0----1---------0----1----------|------0----1---------0----1---------2----|
E|-0--------------3--------------3----0----|-0--------------3--------------3-----|-0--------------3--------------3----0----|

E|-----------------------------------------|-----------------------------------------|
B|-----------------------------------------|-----------------------------------------|
G|-----------------------------------------|-----------------------------------------|
D|-2----------------------------------2----|-2----------------------------------2----|
A|-2----0----1---------0----1---------2----|-2----0----1---------0----1---------2----|
E|-0--------------3--------------3----0----|-0--------------3--------------3----0----|

E|-------------------------------------|-----------------------------------------|-----------------------------------------|
B|-------------------------------------|-----------------------------------------|-----------------------------------------|
G|-------------------------------------|-----------------------------------------|-----------------------------------------|
D|-2-----------------------------------|------------------------------------2----|-2----------------------------------2----|
A|-2----0----1---------0----1----------|------0----1---------0----1---------2----|-2----0----1---------0----1---------2----|
E|-0--------------3--------------3-----|-0--------------3--------------3----0----|-0--------------3--------------3----0----|

E|-----------------------------------------------|-----------------------------------------------|
B|-----------------------------------------------|-----------------------------------------------|
G|-----------------------------------------------|-----------------------------------------------|
D|-2----------------------------------------2----|-2----------------------------------------2----|
A|-2----------------------------------------2----|-2----------------------------------------2----|
E|-0----0----0---0---0----0---0---0----0----0----|-0----0----0---0---0----0---0---0----0----0----|

E|-----------------------------------------------|-------------------------------------|
B|-----------------------------------------------|-------------------------------------|
G|-----------------------------------------------|-------------------------------------|
D|-2----------------------------------------2----|-2-----------------------------2-----|
A|-2----------------------------------------2----|-2----0----1---------0----1----2-----|
E|-0----0----0---0---0----0---0---0----0----0----|-0--------------3--------------0-----|

E|---------|-------------------------------------|---------|-------------------------------------|
B|---------|-------------------------------------|---------|-------------------------------------|
G|---------|-------------------------------------|---------|-------------------------------------|
D|-2-------|-2-----------------------------5-----|-5-------|-5-----------------------------2-----|
A|-2-------|-2----0----1---------0----1----5-----|-5-------|-5----0----1---------0----1----2-----|
E|-0-------|-0--------------3--------------3-----|-3-------|-3--------------3--------------0-----|

E|---------|-------------------------------------|---------|-------------------------------------|
B|---------|-------------------------------------|---------|-------------------------------------|
G|---------|-------------------------------------|---------|-------------------------------------|
D|-2-------|-2-----------------------------5-----|-5-------|-5-----------------------------2-----|
A|-2-------|-2----0----1---------0----1----5-----|-5-------|-5----0----1---------0----1----2-----|
E|-0-------|-0--------------3--------------3-----|-3-------|-3--------------3--------------0-----|

E|---------|--------------------------------------------|--------------------------------------------|
B|---------|--------------------------------------------|--------------------------------------------|
G|---------|--------------------------------------------|--------------------------------------------|
D|-2-------|-2------------------------------------------|---------------------------------------2----|
A|-2-------|-2----0----1---------0----1---------0--1----|-1----1----1----1----0--1----0---------2----|
E|-0-------|-0--------------3--------------3------------|----------------------------------3----0----|

E|-----------------------------------------------|-----------------------------------------------|
B|-----------------------------------------------|-----------------------------------------------|
G|-----------------------------------------------|-----------------------------------------------|
D|-2----------------------------------------2----|-2----------------------------------------2----|
A|-2----------------------------------------2----|-2----------------------------------------2----|
E|-0----0----0---0---0----0---0---0----0----0----|-0----0----0---0---0----0---0---0----0----0----|

E|-------------------------------------|---------|-------------------------------------|
B|-------------------------------------|---------|-------------------------------------|
G|-------------------------------------|---------|-------------------------------------|
D|-2-----------------------------5-----|-5-------|-5-----------------------------2-----|
A|-2----0----1---------0----1----5-----|-5-------|-5----0----1---------0----1----2-----|
E|-0--------------3--------------3-----|-3-------|-3--------------3--------------0-----|

E|---------|-------------------------------------|---------|-------------------------------------|
B|---------|-------------------------------------|---------|-------------------------------------|
G|---------|-------------------------------------|---------|-------------------------------------|
D|-2-------|-2-----------------------------5-----|-5-------|-5-----------------------------2-----|
A|-2-------|-2----0----1---------0----1----5-----|-5-------|-5----0----1---------0----1----2-----|
E|-0-------|-0--------------3--------------3-----|-3-------|-3--------------3--------------0-----|

E|---------|--------------------------------------------|--------------------------------------------|
B|---------|--------------------------------------------|--------------------------------------------|
G|---------|--------------------------------------------|--------------------------------------------|
D|-2-------|-2------------------------------------------|---------------------------------------2----|
A|-2-------|-2----0----1---------0----1---------0--1----|-1----1----1----1----0--1----0---------2----|
E|-0-------|-0--------------3--------------3------------|----------------------------------3----0----|

E|-----------------------------------------|-------------------------------------|-----------------------------------------|
B|-----------------------------------------|-------------------------------------|-----------------------------------------|
G|-----------------------------------------|-------------------------------------|-----------------------------------------|
D|-2----------------------------------2----|-2-----------------------------------|------------------------------------2----|
A|-2----0----1---------0----1---------2----|-2----0----1---------0----1----------|------0----1---------0----1---------2----|
E|-0--------------3--------------3----0----|-0--------------3--------------3-----|-0--------------3--------------3----0----|

E|-----------------------------------------|-----------------------------------------|
B|-----------------------------------------|-----------------------------------------|
G|-----------------------------------------|-----------------------------------------|
D|-2----------------------------------2----|-2----------------------------------2----|
A|-2----0----1---------0----1---------2----|-2----0----1---------0----1---------2----|
E|-0--------------3--------------3----0----|-0--------------3--------------3----0----|

E|-------------------------------------|-----------------------------------------|-----------------------------------------|
B|-------------------------------------|-----------------------------------------|-----------------------------------------|
G|-------------------------------------|-----------------------------------------|-----------------------------------------|
D|-2-----------------------------------|------------------------------------2----|-2----------------------------------2----|
A|-2----0----1---------0----1----------|------0----1---------0----1---------2----|-2----0----1---------0----1---------2----|
E|-0--------------3--------------3-----|-0--------------3--------------3----0----|-0--------------3--------------3----0----|

E|-----------------------------------------------|-----------------------------------------------|
B|-----------------------------------------------|-----------------------------------------------|
G|-----------------------------------------------|-----------------------------------------------|
D|-2----------------------------------------2----|-2----------------------------------------2----|
A|-2----------------------------------------2----|-2----------------------------------------2----|
E|-0----0----0---0---0----0---0---0----0----0----|-0----0----0---0---0----0---0---0----0----0----|

E|-----------------------------------------------|-------------------------------------|
B|-----------------------------------------------|-------------------------------------|
G|-----------------------------------------------|-------------------------------------|
D|-2----------------------------------------2----|-2-----------------------------2-----|
A|-2----------------------------------------2----|-2----0----1---------0----2----2-----|
E|-0----0----0---0---0----0---0---0----0----0----|-0--------------3--------------0-----|

E|-------------------|----------------------------|-----------------------------------------|
B|-------------------|----------------------------|-----------------------------------------|
G|-------------------|----------------------------|-----------------------------------------|
D|-2-------2----5----|-5------5--------------2----|-2----2----2----2----2----2----2----2----|
A|-2-------2----5----|-5------5----4----3----2----|-2----2----2----2----2----2----2----2----|
E|-0-------0----3----|-3------3----2----1----0----|-0----0----0----0----0----0----0----0----|

E|-----------------------------------------|-----------------------------------------|
B|-----------------------------------------|-----------------------------------------|
G|-----------------------------------------|-----------------------------------------|
D|-2----2----2----2-------------------2----|-2----2----2----2----2----2----2----2----|
A|-2----2----2----2----1----0---------2----|-2----2----2----2----2----2----2----2----|
E|-0----0----0----0--------------3----0----|-0----0----0----0----0----0----0----0----|

E|-----------------------------------------|-----------------------------------------|
B|-----------------------------------------|-----------------------------------------|
G|-----------------------------------------|-----------------------------------------|
D|-2----2----2----2-------------------2----|-2----2----2----2----2----2----2----2----|
A|-2----2----2----2----1----0---------2----|-2----2----2----2----2----2----2----2----|
E|-0----0----0----0--------------3----0----|-0----0----0----0----0----0----0----0----|

E|-----------------------------------------|---------------------|-----------------------------------------|
B|-----------------------------------------|---------------------|-----------------------------------------|
G|-----------------------------------------|---------------------|-----------------------------------------|
D|-2----2----2----2-------------------3----|-3--------------2----|-2----2----2----2----2----2----2----2----|
A|-2----2----2----2----1----0---------3----|-3---------0----2----|-2----2----2----2----2----2----2----2----|
E|-0----0----0----0--------------3----1----|-1----3---------0----|-0----0----0----0----0----0----0----0----|

E|-----------------------------------------|---------------------|-----------------------------------------|
B|-----------------------------------------|---------------------|-----------------------------------------|
G|-----------------------------------------|---------------------|-----------------------------------------|
D|-2----2----2----2-------------------3----|-3--------------2----|-2----2----2----2----2----2----2----2----|
A|-2----2----2----2----1----0---------3----|-3---------0----2----|-2----2----2----2----2----2----2----2----|
E|-0----0----0----0--------------3----1----|-1----3---------0----|-0----0----0----0----0----0----0----0----|

E|-----------------------------------------|--------------------|--------------------|
B|-----------------------------------------|--------------------|--------------------|
G|-----------------------------------------|--------------------|--------------------|
D|-2----2----2----2-------------------3----|-3-------------5----|-5------------------|
A|-2----2----2----2----1----0---------3----|-3-------------5----|-5------------------|
E|-0----0----0----0--------------3----1----|-1------2------3----|-3------4------4----|

E|--------|-------------------|-----------------------------------------------|----------------------------------------|
B|--------|-------------------|-----------------------------------------------|----------------------------------------|
G|--------|-------------------|-----------------------------------------------|----------------------------------------|
D|--------|--------------2----|-2----------------------------------------5----|-5---------------------------7----8-----|
A|--------|--------------2----|-2----------------------------------------5----|-5---------------------------7----8-----|
E|-4------|-4-------4----0----|-0----0----0---0---0----0---0---0----0----3----|-3----0----0---0---0----0----5----6-----|

E|--------------------------------------------------|----------------------------------------|
B|--------------------------------------------------|----------------------------------------|
G|--------------------------------------------------|----------------------------------------|
D|---------------------------------------------5----|-5---------------------------7----8-----|
A|---------------------------------------------5----|-5---------------------------7----8-----|
E|-0---0---0----0---0---0----0---0---0----0----3----|-3----0----0---0---0----0----5----6-----|

E|--------------------------------------------------|----------------------------------------|
B|--------------------------------------------------|----------------------------------------|
G|--------------------------------------------------|----------------------------------------|
D|---------------------------------------------5----|-5---------------------------7----8-----|
A|---------------------------------------------5----|-5---------------------------7----8-----|
E|-0---0---0----0---0---0----0---0---0----0----3----|-3----0----0---0---0----0----5----6-----|

E|--------------------------------------------------|-------------------------------------|
B|--------------------------------------------------|-------------------------------------|
G|--------------------------------------------------|-------------------------------------|
D|---------------------------------------------5----|-5-----------------------------5-----|
A|---------------------------------------------5----|-5----0----1---------0----1----5-----|
E|-0---0---0----0---0---0----0---0---0----0----3----|-3--------------3--------------3-----|

E|---------|-------------------------------------|---------|-------------------------------------|
B|---------|-------------------------------------|---------|-------------------------------------|
G|---------|-------------------------------------|---------|-------------------------------------|
D|-5-------|-5-----------------------------2-----|-2-------|-2-----------------------------5-----|
A|-5-------|-5----0----1---------0----2----2-----|-2-------|-2----0----1---------0----1----5-----|
E|-3-------|-3--------------3--------------0-----|-0-------|-0--------------3--------------3-----|

E|---------|--------------------------------------------|--------------------------------------------|
B|---------|--------------------------------------------|--------------------------------------------|
G|---------|--------------------------------------------|--------------------------------------------|
D|-5-------|-5------------------------------------------|---------------------------------------2----|
A|-5-------|-5----0----1---------0----1---------0--1----|-1----1----1----1----0--1----0---------2----|
E|-3-------|-3--------------3--------------3------------|----------------------------------3----0----|

E|-----------------------------------------------|-----------------------------------------------|
B|-----------------------------------------------|-----------------------------------------------|
G|-----------------------------------------------|-----------------------------------------------|
D|-2----------------------------------------2----|-2----------------------------------------2----|
A|-2----------------------------------------2----|-2----------------------------------------2----|
E|-0----0----0---0---0----0---0---0----0----0----|-0----0----0---0---0----0---0---0----0----0----|

E|-----------------------------------------------|-----------------------------------------------|
B|-----------------------------------------------|-----------------------------------------------|
G|-----------------------------------------------|-----------------------------------------------|
D|-2----------------------------------------2----|-2----------------------------------------2----|
A|-2----------------------------------------2----|-2----------------------------------------2----|
E|-0----0----0---0---0----0---0---0----0----0----|-0----0----0---0---0----0---0---0----0----0----|

E|------------------------|---------|---------|---------|-----------------------------------------|
B|------------------------|---------|---------|---------|-----------------------------------------|
G|------%------%-----%----|-%-------|-%-------|-%-------|-----------------------------------------|
D|-2----%------%-----%----|-%-------|-%-------|-%-------|------------------------------------2----|
A|-2----------------------|---------|---------|---------|------0----1---------0----1---------2----|
E|-0----------------------|---------|---------|---------|-0--------------3--------------3----0----|

E|-------------------------------------|-----------------------------------------|-------------------------------------|
B|-------------------------------------|-----------------------------------------|-------------------------------------|
G|-------------------------------------|-----------------------------------------|-------------------------------------|
D|-2-----------------------------------|------------------------------------2----|-2-----------------------------------|
A|-2----0----1---------0----1----------|------0----1---------0----1---------2----|-2----0----1---------0----1----------|
E|-0--------------3--------------3-----|-0--------------3--------------3----0----|-0--------------3--------------3-----|

E|-----------------------------------------|-------------------------------------|-----------------------------------------|
B|-----------------------------------------|-------------------------------------|-----------------------------------------|
G|-----------------------------------------|-------------------------------------|-----------------------------------------|
D|------------------------------------2----|-2-----------------------------------|------------------------------------2----|
A|------0----1---------0----1---------2----|-2----0----1---------0----1----------|------0----1---------0----1---------2----|
E|-0--------------3--------------3----0----|-0--------------3--------------3-----|-0--------------3--------------3----0----|

E|-----------------------------------------|-----------------------------------------|
B|-----------------------------------------|-----------------------------------------|
G|-----------------------------------------|-----------------------------------------|
D|-2----------------------------------2----|-2----------------------------------2----|
A|-2----0----1---------0----1---------2----|-2----0----1---------0----1---------2----|
E|-0--------------3--------------3----0----|-0--------------3--------------3----0----|

E|-------------------------------------|-----------------------------------------|-----------------------------------------|
B|-------------------------------------|-----------------------------------------|-----------------------------------------|
G|-------------------------------------|-----------------------------------------|-----------------------------------------|
D|-2-----------------------------------|------------------------------------2----|-2----------------------------------2----|
A|-2----0----1---------0----1----------|------0----1---------0----1---------2----|-2----0----1---------0----1---------2----|
E|-0--------------3--------------3-----|-0--------------3--------------3----0----|-0--------------3--------------3----0----|

E|-----------------------------------------------|-----------------------------------------------|
B|-----------------------------------------------|-----------------------------------------------|
G|-----------------------------------------------|-----------------------------------------------|
D|-2----------------------------------------2----|-2----------------------------------------2----|
A|-2----------------------------------------2----|-2----------------------------------------2----|
E|-0----0----0---0---0----0---0---0----0----0----|-0----0----0---0---0----0---0---0----0----0----|

E|-----------------------------------------------|-------------------------------------|
B|-----------------------------------------------|-------------------------------------|
G|-----------------------------------------------|-------------------------------------|
D|-2----------------------------------------2----|-2-----------------------------2-----|
A|-2----------------------------------------2----|-2----0----1---------0----1----2-----|
E|-0----0----0---0---0----0---0---0----0----0----|-0--------------3--------------0-----|

E|---------|-------------------------------------|---------|-------------------------------------|
B|---------|-------------------------------------|---------|-------------------------------------|
G|---------|-------------------------------------|---------|--------------------------%-----%----|
D|-2-------|-2-----------------------------5-----|-5-------|-5--------------2----2----%-----%----|
A|-2-------|-2----0----1---------0----1----5-----|-5-------|-5----0----1----2----2---------------|
E|-0-------|-0--------------3--------------3-----|-3-------|-3---------0----0----0---------------|
Metallica - Holier Than Thou
Metallica - Holier Than Thou.gp3