Metallica - Human (3)

Metallica - Human (3)

Metallica



Title: Human
Album: S & M : S&M Disc 2 - Track No04
Artist: Metallica & The San Francisco Symphony
Author: Bob Rock with Hetfield & Ulrich and Micheal Kamen

Track 1: James Hetfield - Rythym Guitar
D#|---------------------------------|-------------------------------------|-------------------------------------|
A#|---------------------------------|-------------------------------------|-------------------------------------|
F#|---------------------------------|-------------------------------------|--------------------------%----------|
C#|---------------------------------|-------------------------------------|--------------------------%----------|
G#|---------------------------------|-3----0----3-------------------------|---------------------3---------3-----|
C#|-0----0----0----7-----0----6-----|-3----0----3-----0----0----0----7----|-7----6----0----2----3---------3-----|

D#|---------------------------------|-------------------------------------|-------------------------------------|
A#|---------------------------------|-------------------------------------|-------------------------------------|
F#|---------------------------------|-------------------------------------|--------------------------%----------|
C#|---------------------------------|-------------------------------------|--------------------------%----------|
G#|---------------------------------|-3----0----3-------------------------|---------------------3---------3-----|
C#|-0----0----0----7-----0----6-----|-3----0----3-----0----0----0----7----|-7----6----0----2----3---------3-----|

D#|---------------------------------|-------------------------------------|-------------------------------------|
A#|---------------------------------|-------------------------------------|-------------------------------------|
F#|---------------------------------|-------------------------------------|--------------------------%----------|
C#|---------------------------------|-------------------------------------|--------------------------%----------|
G#|---------------------------------|-3----0----3-------------------------|---------------------3---------3-----|
C#|-0----0----0----7-----0----6-----|-3----0----3-----0----0----0----7----|-7----6----0----2----3---------3-----|

D#|---------------------------------|-------------------------------------|-------------------------------------|
A#|---------------------------------|-------------------------------------|-------------------------------------|
F#|---------------------------------|-------------------------------------|--------------------------%----------|
C#|---------------------------------|-------------------------------------|--------------------------%----------|
G#|---------------------------------|-3----0----3-------------------------|---------------------3---------3-----|
C#|-0----0----0----7-----0----6-----|-3----0----3-----0----0----0----7----|-7----6----0----2----3---------3-----|

D#|-----------------------------|---------------------|-----------------------------|
A#|-----------------------------|---------------------|-----------------------------|
F#|-----------------------------|---------------------|-----------------------------|
C#|-0------0------0------0------|-6----7----6----5----|-0------0------0------0------|
G#|-0------0------0------0------|-6----7----6----5----|-0------0------0------0------|
C#|-0------0------0------0------|-6----7----6----5----|-0------0------0------0------|

D#|---------------------|-----------------------------|-----------------------------------------|
A#|---------------------|-----------------------------|-----------------------------------------|
F#|---------------------|-----------------------------|-----------------------------------------|
C#|-6----7----X----X----|-0------0------0------0------|-6----7----6----5----5----6----5----3----|
G#|-6----7----X----X----|-0------0------0------0------|-6----7----6----5----5----6----5----3----|
C#|-6----7----X----X----|-0------0------0------0------|-6----7----6----5----5----6----5----3----|

D#|-----------------------------|---------|---------|---------|-----------------------------------------|
A#|-----------------------------|---------|---------|---------|-----------------------------------------|
F#|-----------------------------|---------|---------|---------|-----------------------------------------|
C#|-0------0------0------0------|---------|---------|---------|-6----7----6----5----5----6----5----3----|
G#|-0------0------0------0------|-0-------|-3-------|-5-------|-6----7----6----5----5----6----5----3----|
C#|-0------0------0------0------|-0-------|-3-------|-5-------|-6----7----6----5----5----6----5----3----|

D#|---------|---------|---------|---------|---------|---------|---------|---------|
A#|---------|---------|---------|---------|---------|---------|---------|---------|
F#|---------|---------|---------|---------|---------|---------|---------|---------|
C#|---------|---------|---------|---------|---------|---------|---------|---------|
G#|-0-------|-3-------|-5-------|-7-------|-0-------|-3-------|-5-------|-7-------|
C#|-0-------|-3-------|-5-------|-7-------|-0-------|-3-------|-5-------|-7-------|

D#|-----------------------------|---------------------|-----------------------------|
A#|-----------------------------|---------------------|-----------------------------|
F#|-----------------------------|---------------------|-----------------------------|
C#|-0------0------0------0------|-6----7----6----5----|-0------0------0------0------|
G#|-0------0------0------0------|-6----7----6----5----|-0------0------0------0------|
C#|-0------0------0------0------|-6----7----6----5----|-0------0------0------0------|

D#|---------------------|---------------------------------|-------------------------------------|
A#|---------------------|---------------------------------|-------------------------------------|
F#|---------------------|---------------------------------|-------------------------------------|
C#|-6----7----X----X----|---------------------------------|-------------------------------------|
G#|-6----7----X----X----|---------------------------------|-3----0----3-------------------------|
C#|-6----7----X----X----|-0----0----0----7-----0----6-----|-3----0----3-----0----0----0----7----|

D#|-------------------------------------|---------------------------------|-------------------------------------|
A#|-------------------------------------|---------------------------------|-------------------------------------|
F#|--------------------------%----------|---------------------------------|-------------------------------------|
C#|--------------------------%----------|---------------------------------|-------------------------------------|
G#|---------------------3---------3-----|---------------------------------|-3----0----3-------------------------|
C#|-7----6----0----2----3---------3-----|-0----0----0----7-----0----6-----|-3----0----3-----0----0----0----7----|

D#|-------------------------------------|---------------------------------|-------------------------------------|
A#|-------------------------------------|---------------------------------|-------------------------------------|
F#|--------------------------%----------|---------------------------------|-------------------------------------|
C#|--------------------------%----------|---------------------------------|-------------------------------------|
G#|---------------------3---------3-----|---------------------------------|-3----0----3-------------------------|
C#|-7----6----0----2----3---------3-----|-0----0----0----7-----0----6-----|-3----0----3-----0----0----0----7----|

D#|-------------------------------------|---------------------------------|-------------------------------------|
A#|-------------------------------------|---------------------------------|-------------------------------------|
F#|--------------------------%----------|---------------------------------|-------------------------------------|
C#|--------------------------%----------|---------------------------------|-------------------------------------|
G#|---------------------3---------3-----|---------------------------------|-3----0----3-------------------------|
C#|-7----6----0----2----3---------3-----|-0----0----0----7-----0----6-----|-3----0----3-----0----0----0----7----|

D#|-------------------------------------|---------|---------|---------|---------|---------|
A#|-------------------------------------|---------|---------|---------|---------|---------|
F#|--------------------------%----------|---------|---------|---------|---------|---------|
C#|--------------------------%----------|---------|---------|---------|---------|---------|
G#|---------------------3---------3-----|-0-------|-3-------|-5-------|-7-------|-0-------|
C#|-7----6----0----2----3---------3-----|-0-------|-3-------|-5-------|-7-------|-0-------|

D#|---------|---------|---------|-----------------------------|---------------------|
A#|---------|---------|---------|-----------------------------|---------------------|
F#|---------|---------|---------|-----------------------------|---------------------|
C#|---------|---------|---------|-0------0------0------0------|-6----7----6----5----|
G#|-3-------|-5-------|-7-------|-0------0------0------0------|-6----7----6----5----|
C#|-3-------|-5-------|-7-------|-0------0------0------0------|-6----7----6----5----|

D#|-----------------------------|---------------------|---------------------------------|
A#|-----------------------------|---------------------|---------------------------------|
F#|-----------------------------|---------------------|---------------------------------|
C#|-0------0------0------0------|-6----7----X----X----|---------------------------------|
G#|-0------0------0------0------|-6----7----X----X----|---------------------------------|
C#|-0------0------0------0------|-6----7----X----X----|-0----0----0----7-----0----6-----|

D#|-------------------------------------|-------------------------------------|---------------------------------|
A#|-------------------------------------|-------------------------------------|---------------------------------|
F#|-------------------------------------|--------------------------%----------|---------------------------------|
C#|-------------------------------------|--------------------------%----------|---------------------------------|
G#|-3----0----3-------------------------|---------------------3---------3-----|---------------------------------|
C#|-3----0----3-----0----0----0----7----|-7----6----0----2----3---------3-----|-0----0----0----7-----0----6-----|

D#|-------------------------------------|-------------------------------------|---------------------------------|
A#|-------------------------------------|-------------------------------------|---------------------------------|
F#|-------------------------------------|--------------------------%----------|---------------------------------|
C#|-------------------------------------|--------------------------%----------|---------------------------------|
G#|-3----0----3-------------------------|---------------------3---------3-----|---------------------------------|
C#|-3----0----3-----0----0----0----7----|-7----6----0----2----3---------3-----|-0----0----0----7-----0----6-----|

D#|-------------------------------------|-------------------------------------|---------------------------------|
A#|-------------------------------------|-------------------------------------|---------------------------------|
F#|-------------------------------------|--------------------------%----------|---------------------------------|
C#|-------------------------------------|--------------------------%----------|---------------------------------|
G#|-3----0----3-------------------------|---------------------3---------3-----|---------------------------------|
C#|-3----0----3-----0----0----0----7----|-7----6----0----2----3---------3-----|-0----0----0----7-----0----6-----|

D#|-------------------------------------|-------------------------------------|---------|
A#|-------------------------------------|-------------------------------------|---------|
F#|-------------------------------------|--------------------------%----------|-%-------|
C#|-------------------------------------|--------------------------%----------|-%-------|
G#|-3----0----3-------------------------|---------------------3---------3-----|---------|
C#|-3----0----3-----0----0----0----7----|-7----6----0----2----3---------3-----|---------|

D#|---------|---------|---------|---------|---------|---------|---------|---------------------------------|
A#|---------|---------|---------|---------|---------|---------|---------|---------------------------------|
F#|-%-------|-%-------|-%-------|-%-------|-%-------|-%-------|-%-------|---------------------------------|
C#|-%-------|-%-------|-%-------|-%-------|-%-------|-%-------|-%-------|---------------------------------|
G#|---------|---------|---------|---------|---------|---------|---------|---------------------------------|
C#|---------|---------|---------|---------|---------|---------|---------|-0----0----0----7-----0----6-----|

D#|-------------------------------------|-------------------------------------|---------------------------------|
A#|-------------------------------------|-------------------------------------|---------------------------------|
F#|-------------------------------------|--------------------------%----------|---------------------------------|
C#|-------------------------------------|--------------------------%----------|---------------------------------|
G#|-3----0----3-------------------------|---------------------3---------3-----|---------------------------------|
C#|-3----0----3-----0----0----0----7----|-7----6----0----2----3---------3-----|-0----0----0----7-----0----6-----|

D#|---------|-----------------------------------------|------------------------|
A#|---------|-----------------------------------------|------------------------|
F#|---------|-----------------------------------------|------%----------%------|
C#|---------|-----------------------------------------|------%----------%------|
G#|---------|-----------------------------------------|-3---------3------------|
C#|-6-------|-0----0----0----7----7----6----0----2----|-3---------3------------|
Metallica - Human (3)
Metallica - Human (3).gp4