Metallica - I Disappear

Metallica - I Disappear

Metallica



Title: I Disappear
Album: 
Artist: Metallica
Author: Metallica

Track 1: Guitar 1
D#|---------|---------------------------------|---------------------------------|---------------------------------|
A#|---------|---------------------------------|---------------------------------|---------------------------------|
F#|-%-------|-------9-----%---------%---------|-------9-----%---------%---------|-------9-----%---------%---------|
C#|-%-------|-2-----------%----2----%----2----|-2-----------%----2----%----2----|-2-----------%----2----%----2----|
G#|---------|-2----------------2---------2----|-2----------------2---------2----|-2----------------2---------2----|
D#|---------|-0----------------0---------0----|-0----------------0---------0----|-0----------------0---------0----|

D#|---------------------------------|---------------------------------|---------------------------------|
A#|---------------------------------|---------------------------------|---------------------------------|
F#|-------9-----%---------%---------|-------9-----%---------%---------|-------9-----%---------%---------|
C#|-2-----------%----2----%----2----|-2-----------%----2----%----2----|-2-----------%----2----%----2----|
G#|-2----------------2---------2----|-2----------------2---------2----|-2----------------2---------2----|
D#|-0----------------0---------0----|-0----------------0---------0----|-0----------------0---------0----|

D#|---------------------------------|---------------------------------|---------------------------------|
A#|---------------------------------|---------------------------------|---------------------------------|
F#|-------9-----%---------%---------|-------9-----%---------%---------|-------9-----%---------%---------|
C#|-2-----------%----2----%----2----|-2-----------%----2----%----2----|-2-----------%----2----%----2----|
G#|-2----------------2---------2----|-2----------------2---------2----|-2----------------2---------2----|
D#|-0----------------0---------0----|-0----------------0---------0----|-0----------------0---------0----|

D#|---------------------------------|---------------------------------|---------------------------------|
A#|---------------------------------|---------------------------------|---------------------------------|
F#|-------9-----%---------%---------|-------9-----%---------%---------|-------9-----%---------%---------|
C#|-2-----------%----2----%----2----|-2-----------%----2----%----2----|-2-----------%----2----%----2----|
G#|-2----------------2---------2----|-2----------------2---------2----|-2----------------2---------2----|
D#|-0----------------0---------0----|-0----------------0---------0----|-0----------------0---------0----|

D#|---------------------------------|---------------------------------|---------------------------------|
A#|---------------------------------|---------------------------------|---------------------------------|
F#|-------9-----%---------%---------|-------9-----%---------%---------|-------9-----%---------%---------|
C#|-2-----------%----2----%----2----|-2-----------%----2----%----2----|-2-----------%----2----%----2----|
G#|-2----------------2---------2----|-2----------------2---------2----|-2----------------2---------2----|
D#|-0----------------0---------0----|-0----------------0---------0----|-0----------------0---------0----|

D#|-------------------------|-----------------------------|-----------------------------|
A#|-------------------------|-----------------------------|-----------------------------|
F#|-------9-----%-----------|-----------------------------|-----------------------------|
C#|-2-----------%-----------|-------2-----2----2----------|-------2-----2----2----------|
G#|-2------------------2----|-2-----2-----2----0-----2----|-2-----2-----2----0-----2----|
D#|-0------------------0----|-0----------------------0----|-0----------------------0----|

D#|-----------------------------|---------------------------------|-------------------------------------|
A#|-----------------------------|---------------------------------|-------------------------------------|
F#|-----------------------------|-------------%---------%---------|-------------%----------%--------%---|
C#|-------2-----2----2----------|-------2-----%----5----%----5----|-5-----2-----%-----2----%---2----%---|
G#|-2-----2-----2----0-----2----|-2-----2----------5---------5----|-5-----2-----------2--------2--------|
D#|-0----------------------0----|-0----------------3---------3----|-3-----0-----------0--------0--------|

D#|--------------------------------|--------------------------------|-----------------------------|
A#|--------------------------------|--------------------------------|-----------------------------|
F#|-------%-----------%--------%---|-------%-----------%--------%---|-------%-----------%---------|
C#|-2-----%------2----%---2----%---|-2-----%------2----%---2----%---|-2-----%------5----%----5----|
G#|-2------------2--------2--------|-2------------2--------2--------|-2------------5---------5----|
D#|-0------------0--------0--------|-0------------0--------0--------|-0------------3---------3----|

D#|-------------------------------------|--------------------------------|--------------------------------|
A#|-------------------------------------|--------------------------------|--------------------------------|
F#|-------------%----------%--------%---|-------%-----------%--------%---|-------%-----------%--------%---|
C#|-5-----2-----%-----2----%---2----%---|-2-----%------2----%---2----%---|-2-----%------2----%---2----%---|
G#|-5-----2-----------2--------2--------|-2------------2--------2--------|-2------------2--------2--------|
D#|-3-----0-----------0--------0--------|-0------------0--------0--------|-0------------0--------0--------|

D#|-----------------------------|-------------------------------------|-------------------------------------|
A#|-----------------------------|-------------------------------------|-------------------------------------|
F#|-------%-----------%---------|-----------%----------2----%----2----|-2-----------------------------------|
C#|-2-----%------5----%----5----|-5----4----%----4-----2----%----2----|-2------------------------------2----|
G#|-2------------5---------5----|-5----4---------4-----0---------0----|-0----2--------------0----2-----2----|
D#|-0------------3---------3----|-3----2---------2--------------------|-----------3----0---------------0----|

D#|--------------------------------|--------------------------------|--------------------------------|
A#|--------------------------------|--------------------------------|--------------------------------|
F#|-------%-----------%--------%---|-------%-----------%--------%---|-------%-----------%--------%---|
C#|-2-----%------2----%---2----%---|-2-----%------2----%---2----%---|-2-----%------2----%---2----%---|
G#|-2------------2--------2--------|-2------------2--------2--------|-2------------2--------2--------|
D#|-0------------0--------0--------|-0------------0--------0--------|-0------------0--------0--------|

D#|-----------------------------|---------------------------------|---------------------------------|
A#|-----------------------------|---------------------------------|---------------------------------|
F#|-------%-----------%---------|-------9-----%---------%---------|-------9-----%---------%---------|
C#|-2-----%------5----%----5----|-5-----------%----2----%----2----|-2-----------%----2----%----2----|
G#|-2------------5---------5----|-5----------------2---------2----|-2----------------2---------2----|
D#|-0------------3---------3----|-3----------------0---------0----|-0----------------0---------0----|

D#|---------------------------------|-------------------------|-------------------------------------|
A#|---------------------------------|-------------------------|-------------------------------------|
F#|-------9-----%---------%---------|-------9-----%-----------|-------------%----------%--------%---|
C#|-2-----------%----2----%----2----|-2-----------%------2----|-2-----2-----%-----2----%---2----%---|
G#|-2----------------2---------2----|-2------------------2----|-2-----2-----------2--------2--------|
D#|-0----------------0---------0----|-0------------------0----|-0-----0-----------0--------0--------|

D#|--------------------------------|--------------------------------|-----------------------------|
A#|--------------------------------|--------------------------------|-----------------------------|
F#|-------%-----------%--------%---|-------%-----------%--------%---|-------%-----------%---------|
C#|-2-----%------2----%---2----%---|-2-----%------2----%---2----%---|-2-----%------5----%----5----|
G#|-2------------2--------2--------|-2------------2--------2--------|-2------------5---------5----|
D#|-0------------0--------0--------|-0------------0--------0--------|-0------------3---------3----|

D#|-------------------------------------|--------------------------------|--------------------------------|
A#|-------------------------------------|--------------------------------|--------------------------------|
F#|-9-----------%----------%--------%---|-------%-----------%--------%---|-------%-----------%--------%---|
C#|-5-----2-----%-----2----%---2----%---|-2-----%------2----%---2----%---|-2-----%------2----%---2----%---|
G#|-5-----2-----------2--------2--------|-2------------2--------2--------|-2------------2--------2--------|
D#|-3-----0-----------0--------0--------|-0------------0--------0--------|-0------------0--------0--------|

D#|-----------------------------|-------------------------------------|-------------------------------------|
A#|-----------------------------|-------------------------------------|-------------------------------------|
F#|-------%-----------%---------|-----------%----------2----%----2----|-2-----------------------------------|
C#|-2-----%------5----%----5----|-5----4----%----4-----2----%----2----|-2------------------------------2----|
G#|-2------------5---------5----|-5----4---------4-----0---------0----|-0----2--------------0----2-----2----|
D#|-0------------3---------3----|-3----2---------2--------------------|-----------3----0---------------0----|

D#|--------------------------------|--------------------------------|--------------------------------|
A#|--------------------------------|--------------------------------|--------------------------------|
F#|-------%-----------%--------%---|-------%-----------%--------%---|-------%-----------%--------%---|
C#|-2-----%------2----%---2----%---|-2-----%------2----%---2----%---|-2-----%------2----%---2----%---|
G#|-2------------2--------2--------|-2------------2--------2--------|-2------------2--------2--------|
D#|-0------------0--------0--------|-0------------0--------0--------|-0------------0--------0--------|

D#|-----------------------------|---------------|---------|---------|---------|---------|
A#|-----------------------------|---------------|---------|---------|---------|---------|
F#|-------%-----------%---------|---------------|-%-------|-%-------|-%-------|-%-------|
C#|-2-----%------5----%----5----|-5------4------|-%-------|-%-------|-%-------|-%-------|
G#|-2------------5---------5----|-5------4------|---------|---------|---------|---------|
D#|-0------------3---------3----|-3------2------|---------|---------|---------|---------|

D#|---------|---------|---------|---------|-----------------------------|-----------------------------|
A#|---------|---------|---------|---------|-----------------------------|-----------------------------|
F#|-%-------|-%-------|-%-------|-%-------|-----------------------------|-----------------------------|
C#|-%-------|-%-------|-%-------|-%-------|-------2-----2----2----------|-------2-----2----2----------|
G#|---------|---------|---------|---------|-2-----2-----2----0-----2----|-2-----2-----2----0-----2----|
D#|---------|---------|---------|---------|-0----------------------0----|-0----------------------0----|

D#|-----------------------------|---------------------------------|-------------------------------------|
A#|-----------------------------|---------------------------------|-------------------------------------|
F#|-----------------------------|-------------%---------%---------|-------------%----------%--------%---|
C#|-------2-----2----2----------|-------2-----%----5----%----5----|-5-----2-----%-----2----%---2----%---|
G#|-2-----2-----2----0-----2----|-2-----2----------5---------5----|-5-----2-----------2--------2--------|
D#|-0----------------------0----|-0----------------3---------3----|-3-----0-----------0--------0--------|

D#|--------------------------------|--------------------------------|-----------------------------|
A#|--------------------------------|--------------------------------|-----------------------------|
F#|-------%-----------%--------%---|-------%-----------%--------%---|-------%-----------%---------|
C#|-2-----%------2----%---2----%---|-2-----%------2----%---2----%---|-2-----%------5----%----5----|
G#|-2------------2--------2--------|-2------------2--------2--------|-2------------5---------5----|
D#|-0------------0--------0--------|-0------------0--------0--------|-0------------3---------3----|

D#|-------------------------------------|--------------------------------|--------------------------------|
A#|-------------------------------------|--------------------------------|--------------------------------|
F#|-2-----------%----------%--------%---|-------%-----------%--------%---|-------%-----------%--------%---|
C#|-5-----2-----%-----2----%---2----%---|-2-----%------2----%---2----%---|-2-----%------2----%---2----%---|
G#|-------2-----------2--------2--------|-2------------2--------2--------|-2------------2--------2--------|
D#|-3-----0-----------0--------0--------|-0------------0--------0--------|-0------------0--------0--------|

D#|-----------------------------|-------------------------------------|-------------------------------------|
A#|-----------------------------|-------------------------------------|-------------------------------------|
F#|-------%-----------%---------|-----------%----------2----%----2----|-2-----------------------------------|
C#|-2-----%------5----%----5----|-5----4----%----4-----2----%----2----|-2------------------------------2----|
G#|-2------------5---------5----|-5----4---------4-----0---------0----|-0----2--------------0----2-----2----|
D#|-0------------3---------3----|-3----2---------2--------------------|-----------3----0---------------0----|

D#|--------------------------------|--------------------------------|--------------------------------|
A#|--------------------------------|--------------------------------|--------------------------------|
F#|-------%-----------%--------%---|-------%-----------%--------%---|-------%-----------%--------%---|
C#|-2-----%------2----%---2----%---|-2-----%------2----%---2----%---|-2-----%------2----%---2----%---|
G#|-2------------2--------2--------|-2------------2--------2--------|-2------------2--------2--------|
D#|-0------------0--------0--------|-0------------0--------0--------|-0------------0--------0--------|

D#|-----------------------------|---------------|---------|---------|---------|---------|
A#|-----------------------------|---------------|---------|---------|---------|---------|
F#|-------%-----------%---------|---------------|---------|---------|---------|---------|
C#|-2-----%------5----%----5----|-5------4------|---------|-5-------|-5-------|-7-------|
G#|-2------------5---------5----|-5------4------|-7-------|---------|---------|---------|
D#|-0------------3---------3----|-3------2------|---------|---------|---------|---------|

D#|---------|---------|---------|---------|---------|---------------------|---------|
A#|---------|---------|---------|---------|---------|---------------------|---------|
F#|---------|---------|---------|---------|-9-------|-12-----11-----------|---------|
C#|---------|-5-------|-5-------|-7-------|---------|---------------12----|-12------|
G#|-7-------|---------|---------|---------|---------|---------------------|---------|
D#|---------|---------|---------|---------|---------|---------------------|---------|

D#|---------------|---------|---------------------|---------|---------------|---------------------------------|
A#|---------------|---------|---------------------|---------|---------------|---------------------------------|
F#|-12------11----|-9-------|-12-----11-----------|---------|-12------11----|-------9-----%---------%---------|
C#|---------------|---------|---------------12----|-12------|---------------|-2-----------%----2----%----2----|
G#|---------------|---------|---------------------|---------|---------------|-2----------------2---------2----|
D#|---------------|---------|---------------------|---------|---------------|-0----------------0---------0----|

D#|---------------------------------|---------------------------------|---------|----------------------------------------|
A#|---------------------------------|---------------------------------|---------|----------------------------------------|
F#|-------9-----%---------%---------|-------9-----%---------%---------|---------|-------12-------12-----------------12---|
C#|-2-----------%----2----%----2----|-2-----------%----2----%----2----|-2-------|-------12-------12---------12--14-------|
G#|-2----------------2---------2----|-2----------------2---------2----|-2-------|------------14--------14----------------|
D#|-0----------------0---------0----|-0----------------0---------0----|-0-------|-0--------------------------------------|

D#|----------------------------------------|----------------------------------------|
A#|----------------------------------------|----------------------------------------|
F#|-------12-------12-----------------12---|-------12-------12-----------------12---|
C#|-------12-------12---------12--14-------|-------12-------12---------12--14-------|
G#|------------14--------14----------------|------------14--------14----------------|
D#|-0--------------------------------------|-0--------------------------------------|

D#|--------------------------------------------------------------|----------------------------------------|
A#|--------------------------------------------------------------|----------------------------------------|
F#|-14--12------14--12------14--12------14--12------14--12-------|-------12-------12-----------------12---|
C#|---------14----------14----------14----------14----------14---|-------12-------12---------12--14-------|
G#|--------------------------------------------------------------|------------14--------14----------------|
D#|--------------------------------------------------------------|-0--------------------------------------|

D#|----------------------------------------|----------------------------------------|
A#|----------------------------------------|----------------------------------------|
F#|-------12-------12-----------------12---|-------12-------12-----------------12---|
C#|-------12-------12---------12--14-------|-------12-------12---------12--14-------|
G#|------------14--------14----------------|------------14--------14----------------|
D#|-0--------------------------------------|-0--------------------------------------|

D#|--------------------------------------------------------------|---------|---------|
A#|--------------------------------------------------------------|---------|---------|
F#|-14--12------14--12------14--12------14--12------14--12-------|-%-------|-%-------|
C#|---------14----------14----------14----------14----------14---|-%-------|-%-------|
G#|--------------------------------------------------------------|---------|---------|
D#|--------------------------------------------------------------|---------|---------|

D#|---------|---------|--------------------|--------------------|--------------------|
A#|---------|---------|--------------------|--------------------|--------------------|
F#|-%-------|-%-------|-%-----9-----%------|-%-----9-----%------|-%-----9-----%------|
C#|-%-------|-%-------|-%-----------%------|-%-----------%------|-%-----------%------|
G#|---------|---------|--------------------|--------------------|--------------------|
D#|---------|---------|--------------------|--------------------|--------------------|

D#|--------------------|---------|---------------------|---------|---------------|---------|
A#|--------------------|---------|---------------------|---------|---------------|---------|
F#|-%-----9-----%------|-9-------|-12-----11-----------|---------|-12------11----|-9-------|
C#|-%-----------%------|---------|---------------12----|-12------|---------------|---------|
G#|--------------------|---------|---------------------|---------|---------------|---------|
D#|--------------------|---------|---------------------|---------|---------------|---------|

D#|---------------------|---------|---------------|---------|---------------------|
A#|---------------------|---------|---------------|---------|---------------------|
F#|-12-----11-----------|---------|-12------------|-9-------|-12-----11-----------|
C#|---------------12----|-12------|---------12----|---------|---------------12----|
G#|---------------------|---------|---------------|---------|---------------------|
D#|---------------------|---------|---------------|---------|---------------------|

D#|---------|---------------|---------|---------------------|---------|---------------|
A#|---------|---------------|---------|---------------------|---------|---------------|
F#|---------|-12------11----|-9-------|-12-----11-----------|---------|-12------------|
C#|-12------|---------------|---------|---------------12----|-12------|---------12----|
G#|---------|---------------|---------|---------------------|---------|---------------|
D#|---------|---------------|---------|---------------------|---------|---------------|

D#|---------------------------------|---------------------------------|---------------------------------|
A#|---------------------------------|---------------------------------|---------------------------------|
F#|-------9-----%---------%---------|-------9-----%---------%---------|-------9-----%---------%---------|
C#|-2-----------%----2----%----2----|-2-----------%----2----%----2----|-2-----------%----2----%----2----|
G#|-2----------------2---------2----|-2----------------2---------2----|-2----------------2---------2----|
D#|-0----------------0---------0----|-0----------------0---------0----|-0----------------0---------0----|

D#|--------------------|
A#|--------------------|
F#|-------9-----%------|
C#|-2-----------%------|
G#|-2------------------|
D#|-0------------------|
Metallica - I Disappear
Metallica - I Disappear.gp3